Song name
# A B C D E F G H I J K L M N O P Q R S T U V W X Y Z

Sea Of Treachery - Skin Deep tab

Title: Skin Deep
Artist: Sea Of Treachery
Album: Welcome To Wonderland
Tabbed By: Zane Miller (Zane10104)


 Guitar 1


D|--------------------------------------------|-12--13--12-----10----------|
A|-10--11--10--8--10--8-----------------------|-------------13-------------|
F|-----------------------10--7--------10--12--|----------------------------|
C|-----------------------------10--12---------|----------------------------|
G|--------------------------------------------|----------------------------|
C|--------------------------------------------|----------------------------|



D|------------------------------------------------12-13-12---|x4
A|-10--11--10------------------------------10--11---------13-|
F|-------------12--10--------------10--12--------------------|
C|---------------------12--10--12----------------------------|
G|-----------------------------------------------------------|
C|-----------------------------------------------------------|
Thats all i have for now, if you guys request me to do the full song,i will(:
Tap to rate this tab
# A B C D E F G H I J K L M N O P Q R S T U V W X Y Z