Song name
# A B C D E F G H I J K L M N O P Q R S T U V W X Y Z

Sea Of Treachery - Misery Business tab

MISERY BUSINESS
DROP C
PLEASE RATE & COMMENT.

PALM MUTE - *
REPEAT - #
BEND - b
HARMONIC - ^
HAMMER-ON - h


INTRO:
GTR1                                             1st ending     2nd ending
D|----------------------------------------------|-----------|--------------------|
A|----------------------------------------------|-----------|--------------------|
F|#--------5-7-5-7----------------------5-7-5-7-|----------#|-------------10-10~-|
C|--8-8--8---------7-7--7-7-7--7-8-8--8---------|5-5--5-5-5-|-7h8-8h10-10--------|
G|#---------------------------------------------|----------#|--------------------|
C|----------------------------------------------|-----------|--------------------|
GTR2                                                                             |
D|----------------------------------------------|-----------|--------------------|
A|----------------------------------------------|-----------|--------------------|
F|#---------------------------------------------|----------#|--------------------|
C|----------------------------------------------|-----------|--------------------|
G|#--------3-5-3-5----------------------3-5-3-5-|----------#|-8-8-8-8-7-7-7-7----|
C|--5-5--5---------3-3--3-3-3--3-5-5--5---------|1-1--1-1-1-|-8-8-8-8-7-7-7-7----|




VERSE: 0:12
GTR1 (comes in 2nd time round at 0:23)           1st ending     2nd ending
D|----------------------------------------------|--------------|------------------------------|
A|--11-8-11-8-11---11-8-11-8-11-8---11-8-11-8-11|8-11-11-6-6-8-|-11-8-11-8-11-11-11-11/15-15~-|
F|#---------------------------------------------|-------------#|------------------------------|
C|----------------------------------------------|--------------|------------------------------|
G|#---------------------------------------------|-------------#|------------------------------|
C|----------------------------------------------|--------------|------------------------------|
GTR2                                                                             |
D|----------------------------------------------|-----------|--------------------|
A|----------------------------------------------|-----------|--------------------|
F|#---------------------------------------------|----------#|--------------------|
C|----------------------------------------------|-----------|--------------------|  X2
G|#--------3-5-3-5----------------------3-5-3-5-|----------#|-8-8-8-8-7-7-7-7----|
C|--5-5--5---------3-3--3-3-3--3-5-5--5---------|1-1--1-1-1-|-8-8-8-8-7-7-7-7----|
    * *  * * * * * * *  * * *  * * *  * * * * *  * *  * * *   * * * * * * * *



PRECHORUS THINGY 0:34
GTR1
D|-----------------------------------------------|
A|-here i just bend a natural harmonic repeatedly|
F|-but i bet they use a tremelo bar...-----------|
C|-----------------------------------------------|
G|-----------------3^b---------------------------|
C|-----------------------------------------------|
GTR2                                             |
D|-----------------------------------------------|
A|-----------------------------------------------|
F|-----------------------------------------------|
C|-----------5-5-5-3-3-3-3-3---------------------|
G|-5-5-5-5-5-5-5-5-3-3-3-3-3---------------------|
C|-5-5-5-5-5-5-5-5-3-3-3-3-3---------------------|
   * * * *


CHORUS 0:37
GTR1 ( this guitar plays octaves which you can barely
hear, so youre better off to play with GTR2)            
D|-------------------------------------------------|
A|-------------------------------------------------|   
F|-12-12-12-12-15-15-15-15-10-10-10-10-15-15-14-14-|   
C|--X--X--X--X--X--X--X--X--X--X--X--X--X--X--X--X-|  
G|-10-10-10-10-13-13-13-13--8--8--8--8-13-12-12-12-|
C|-------------------------------------------------|     
GTR2                                               | X2
D|-------------------------------------------------|
A|-------------------------------------------------|
F|---------3-3-3-3---------------------------------|
C|-1-1-1-1-3-3-3-3-3-3-3-3-5-5-5-5-----------------|
G|-1-1-1-1-1-1-1-1-3-3-3-3-5-5-5-5-----------------|
C|-1-1-1-1---------3-3-3-3-5-5-5-5-----------------|



POST CHORUS BREAKDOWN 0:48                1ST      2ND
D|---------------------------------------|--------|------------|
A|---------------------------------------|--------|------------|
F|---------------------------------------|--------|------------|
C|---------------------------------------|--------|------------|
G|-1-1--111111-1-1-888888-3-3-333333-3-3-|3////8--|-8-8-8-8-7--|
C|-1-1--111111-1-1-888888-3-3-333333-3-3-|3////8--|-8-8-8-8-7--|


                      PLAY INTRO (1'S AT THE END OF IT)

                      PLAY VERSE
   
                      PLAY PRECHORUS THINGY WITH NO HARMONIC

                      PLAY CHORUS AND BREAKDOWN WITH IT.. AND NOW..:

BRIDGE THING 1:52
GTR2 (clean chords which i cbf figuring out exactlly)
but this works)
D|------------------------------------------------------------|
A|--------------and on the forth time-------------------------|
F|--------------guitar-1 comes in with..----------------------|
C|---------------------------------------3^Brbrbrbrbrbbbr-----|
G|-5--8--3--8-7----X4-----------------------------------------|
C|-5--8--3--8-7-----------------------------------------------|



SOLO 2:14
GTR1
D|-------------------------------------------------------------------------------------------------|
A|-------------------------------------------------------------------------------------------------|
F|-10/12-12-12-12-12-12-12-12\15-12-12-12-12-12-12-10/12-12-12-12-12-12-12-20-20-20-20-19-19-19-19-|
C|-X---X--X--X--X--X--X--X--X--X--X--X--X--X--X--X--X--X--X--X--X--X--X--X--X--X--X--X--X--X--X--X-|
G|-8/-10-10-10-10-10-10-10-13\10-10-10-10-10-10-10--8/10-10-10-10-10-10-10-18-18-18-18-17-17-17-17-|
C|-------------------------------------------------------------------------------------------------|
GTR2                                               |     X2
D|-------------------------------------------------|
A|-------------------------------------------------|
F|---------3-3-3-3---------------------------------|
C|-1-1-1-1-3-3-3-3-3-3-3-3-5-5-5-5-----------------| 
G|-1-1-1-1-1-1-1-1-3-3-3-3-5-5-5-5-----------------|
C|-1-1-1-1---------3-3-3-3-5-5-5-5-----------------|...

GTR1
D|------------------------------------------18-18-18-18-20-20-22--17-17-17-17-17//-|
A|-18-----16-----15-----13-----18-----20-------------------------------------------|
F|--X(x8)--X(x8)--X(x8)--X(x8)--X(x8)--X(x8)---------------------------------------|
C|-15-----13-----12-----10-----15-----17-------------------------------------------|
G|---------------------------------------------------------------------------------|
C|---------------------------------------------------------------------------------|
GTR2                                                       1st ending 2nd ending |
D|--------------------------------------------------------|----------|-----------|
A|--------------------------------------------------------|----------|-----------|
F|#-------------------------------------------------------|----------|-----------|
C|--------------------------------------------------------|----------|-----------|
G|#1-1-1-1-1-1-1-1-1-1-1-1-5-5-5-5-3-3-3-3-3-3-3-3-3-3-3-3|-5-5-5-5--|-8-8-8-8-7-|
C|-1-1-1-1-1-1-1-1-1-1-1-1-5-5-5-5-3-3-3-3-3-3-3-3-3-3-3-3|-5-5-5-5--|-8-8-8-8-7-|



WOOH, I NEVER MEANT TO BRAAAAG;.....
D|---------
A|---------
F|--3^BEND-BIG
C|---------
G|---------
C|---------

                          PLAY CHORUS


LAST BREAKDOWN 2:53
D|-----------------------------------------------|
A|-----------------------------------------------|
F|------------------------------------------4^B--|
C|-----------------------------------------------|
G|-1-1--111111-1-1-888888-3-3-333333-3-3---------|
C|-1-1--111111-1-1-888888-3-3-333333-3-3---------|..
|
D|-------------------------------------------------|
A|-------------------------------------------------|
F|-------------------------------------------------|
C|-------------------------------------------------|
G|-0-0--000000-0-0-000000-0-0-000000-8-8-8-8-7-----|
C|-1-1--111111-1-1-888888-3-3-333333-8-8-8-8-7-----|


                         PLAY INTRO

D|--------------|
A|-4^-4^-4^-4^--|
F|--------------|
C|--------------|
G|--------------|
C|--------------|..
Tap to rate this tab
# A B C D E F G H I J K L M N O P Q R S T U V W X Y Z