Song name
# A B C D E F G H I J K L M N O P Q R S T U V W X Y Z

Sea Of Treachery - Purging Of The Wicked tab

SEA OF TREACHERY
DROP C
2 GTRS

==========================================GUITAR 1================================================

Intro (single '0' on 4th ending)           0:15
D|------------------------------|---||     D|-----------------------------||
A|------------------------------|---||     A|-----------------------------||
F|------------------------------|---||     F|-----------------------------||
C|-000-000-000000--0-00000-0000-|-0-|| x4  C|-0---0---000000--0-00000-0---|| x4
G|-000-000-000000--0-00000-0000-|-0-||     G|-0---0---000000--0-00000-0---||
C|-000-000-000000--0-00000-0000-|-0-||     C|-0---0---000000--0-00000-0---||
HEAVY* *** ******  * ***** ****   *           *   *   ******  * ***** *



Pre-Verse/Verse        0:31 - 0:48
D|-------------------------------------------------|
A|-------------------------------------------------|
F|-------------------------------------------------|
C|-00------------------------88--------55----------| x4
G|-00-5-8-7p5---8h10---12\10-88-10-8-7~55-5-7-8~---|
C|-00--0-0---0-0----0-0------88---8-8--55--5-5-----|
       * *   * *    * *           * *      * *



0:49 - 1:07
Pre-chorus           x4
D|-------------------||----------|
A|-------------------||----------|
F|-------------------||----------|
C|-------------------||-8~----5~-| (x2)
G|-00-5-8-7p5-000-00-||-8~----5~-|
C|-00--0-0----000-00-||-8~----5~-|
   **  * *    *** ** 



Chorus 1       1:07 - 1:25
Gtr1
D|---------------------------------------|
A|---------------------------------------|
F|---------------------------------------|
C|----------5~------10~---------0~-------| x4
G|-88-8-7h8-5~8-7p5-10~10--8h10-0~10-8-7-|
C|-88--8----5~-5----10~--10-----0~--0-0--|
   **  *       *         *          * *




                                       play this at the
Breakdown     1:32 - 2:03              end of the 4th time
D|------------------------------||     ----------|
A|------------------------------||     ----------|
F|------------------------------||     ----------|
C|-0---0---000000--0-00000-00---|| x4  -8~--10~--|  ((x2)) 
G|-0---0---000000--0-00000-00---||     -8~--10~--|
C|-0---0---000000--0-00000-00---||     -8~--10~--|
   *   *   ******  * ***** **
Let the higher 'C' ring out more towards the end




Build up part      2:03 - 2:36
D|-------------------------------------------------------------------------------|
A|-------------------------------------------------------------------------------|
F|-------------------------------------------------------------------------------|
C|-0~---------------------------10~----------------------------------------------|
G|-0~-000-000-000-000-000-0-0-0-10~-101010-101010-101010-101010-101010-10-10-10--|
C|-0~-000-000-000-000-000-0-0-0-10~-101010-101010-101010-101010-101010-10-10-10--|..
||    *** *** *** *** *** * * *     * * *  * * *  * * *  * * *  * * *  *  *  *                     
D|--------------------------------------------------------|    ||-----------------|
A|--------------------------------------------------------|    ||-----------------|
F|--------------------------------------------------------|    ||-----------------|
C|-7~---------------------------8~----555777555---555777--| x3 ||-----------------|
G|-7~-777-777-777-777-777-7-7-7-8~-888---------888--------|    ||-0-0-0-0-0---3#--|
C|-7~-777-777-777-777-777-7-7-7-8~------------------------|    ||-0-0-0-0-0-------|
      *** *** *** *** *** * * *                                   * * * * * 




Verse ( 2:36 - 2:43) then..
D|---------|
A|---------|
F|---------|
C|---------|
G|-00--33--|
C|-00--33--|
   **  **
Gtr1 cont.            2:45
D|-------------------------------------------------|
A|-------------------------------------------------|
F|-------------------------------------------------|
C|-00------------------------88--------55----------| x2
G|-00-5-8-7p5---8h10---12\10-88-10-8-7~55-5-7-8~---|
C|-00--0-0---0-0----0-0------88---8-8--55--5-5-----|
||     * *   * *    * *           * *      * *





Pre - Breakdown 2:54
D|---------|---------|-s-s-s-|-------|--------------|
A|--Gtr1---|--Gtr2---|-n-n-n-|-b-b-b-|-Gtr1 & Gtr2--|
F|---------|---------|-a-a-a-|-a-a-a-|--------------|
C|-000-000-|-000-000-|-r-r-r-|-s-s-s-|-000----------|
G|-000-000-|-000-000-|-e-e-e-|-s-s-s-|-000--3#------|
C|-000-000-|-000-000-|-------|-------|-000----------|


"Make Them Suffer"  3:00             3:04              3:07             3:11
D|-----------------|----------------|-----------------|----------------|-----------------|
A|-----------------|----------------|-----------------|----------------|-----------------|
F|-----------------|----------------|-----------------|----------------|-PAY THE PRICE---|
C|-000-000-000-000-|----------------|-----------------|----------------|---------000-----|
G|-000-000-000-000-|-------5-8-7-3#-|-8-----7---5-4---|-------5-8-7-3#-|---------000-----|
C|-000-000-000-000-|-0-5-8----------|---5-7---0-----8-|-0-5-8----------|---------000-----|
   *** *** *** ***   * * * * * *      * * * * * * * *   * * * * * *              ***
Go back to the ^ after ever ending.
                    3:15             3:19              3:22             3:26
D|-----------------|----------------|-----------------|----------------|-----------------|
A|-----------------|----------------|-----------------|----------------|-----------------|
F|-----------------|----------------|-----------------|----------------|-----------------|
C|-000-000-000-000-|----------------|-----------------|----------------|-----------------|
G|-000-000-000-000-|-5tr-8tr-4tr-7tr|-8tr-5tr-7tr-4tr-|-5tr-8tr-4tr-7tr|-8tr-5tr-7tr-4tr-|
C|-000-000-000-000-|----------------|-----------------|----------------|-----------------|
   *** *** *** ***  



                         Play Chorus  (3:28 - 3:46)


3:46 Pre-solo 
D|---------------------|---------------|
A|---------------------|---------------|
F|---------------------|----------14..-|
C|-8~---------------5~-|-------12------|
G|-8~-(10--8--8h10)-5~-|-12-15---------|
C|-8~----0--0-------5~-|---------------|
|| 3:51
D|--------------------10--------------______-------------------------------------------|
A|-----------------------10----------|-------|------------------------------------------|
F|-12b(14)~~---12b(14)~~~~~(14)r12---10-12-10-------------------------------------------|
C|--------------------------------------------9-10-12~12~v---12-12-15-15-14-14-15-15\10-|
G|--------------------------------------------------------------------------------------|
C|--------------------------------------------------------------------------------------|
|| 4:00
D|---------13~~-------------------------------------------------------------------------|
A|-13b(15)~~~--(15)r13p11---------------------------------------------------------------|
F|-------------------------10-12-10-----------------------------------------------------|
C|-----------------------------------10/12--/12-12-15-15-14-14-15-15-17-15-14-15-14/10--|
G|---------------------------------10---------------------------------------------------|
C|--------------------------------------------------------------------------------------|
|| 4:06
D|--------------------------------------------------------------------------------13-13.|
A|------------------8h10h11-------------------------------------------------------------|
F|------------7h9h10--------10~~-10-10-9-9-10-10-12-12~~-10-12--12#b-10-10~-------------|
C|------5h7h8---------------------------------------------------------------------------|
G|-5h7h8--------------------------------------------------------------------------------|
C|--------------------------------------------------------------------------------------|
|| 4:13
D|.13p10--10-----------------------------------------------------------------------------------------|
A|------13--13p10-13p10--10--------------------------------------------------------------------------|
F|---------------------12--12p10-12p10--10----------------------------------10-12-10-12-12b(14)r--10~|
C|------------------------------------12--12p10-12~~~12tr10-10\7-7/10-10/12--------------------------|
G|---------------------------------------------------------------------------------------------------|
C|---------------------------------------------------------------------------------------------------|
|| 4:21
D|--------------------------------------------------------------------------------------|
A|- PLAY 4 TIMES --------------------------------------10-11-10-11-13~~-11-10-11-10~~---|
F|-(12b(14)r-10)---------------------------------10-12----------------------------------|
C|--------------------------...-14-15-14\10---/12---------------------------------------|
G|--------------------------------------------------------------------------------------|
C|--------------------------------------------------------------------------------------|
|| 4:29
D|---------13~~~~-----------13-12-10--------------------------------------------------------|
A|-13b(15)~~~~~-(15)r13-~~-----------13-11-11h13p11p1011p10h11p10---------------------------|
F|------------------------------------------------------------------10-12-10----------------|
C|------------------------------------------------------------------------------10/12\10\5~-|
G|---------------------------------------------------------------------------10-------------|
C|------------------------------------------------------------------------------------------|
|| 4:34
D|------------------------------------------|
A|------------------------------------------|
F|------------------------------------------|
C|-3h5-5p3-3p0-0h2-2h3-0~~~~~~---FEEDBACK---|
G|------------------------------------------|
C|------------------------------------------|





=====================================GUITAR 2====================================================

Intro (single '0' on 4th ending)           0:15
D|------------------------------|---||     D|-----------------------------||
A|------------------------------|---||     A|-----------------------------||
F|------------------------------|---||     F|-----------------------------||
C|-000-000-000000--0-00000-0000-|-0-|| x4  C|-0---0---000000--0-00000-0---|| x4
G|-000-000-000000--0-00000-0000-|-0-||     G|-0---0---000000--0-00000-0---||
C|-000-000-000000--0-00000-0000-|-0-||     C|-0---0---000000--0-00000-0---||
HEAVY* *** ******  * ***** ****   *           *   *   ******  * ***** *



Pre-Verse/Verse        0:31 - 0:41     
D|--------------------------------------------------------|
A|--------------------------------------------------------|
F|--------------------------------------------------------|
C|-0~~~~~-------8~~~-5~~~~00------------88----55----------|
G|-0~~~~~-------8~~--5~~~~00------------88----55-8-10-12~-|
C|-0~~~~~-------8~~~-5~~~~00------------88----55--0--0----|
                          **            **    **  *  *
                       0:41 - 0:48
D|-------------------------------------------------|
A|-------------------------------------------------|
F|-------------------------------------------------|
C|-00------------------------88--------55----------| x2
G|-00-5-8-7p5---8h10---12\10-88-10-8-7~55-5-7-8~---|
C|-00--0-0---0-0----0-0------88---8-8--55--5-5-----|
       * *   * *    * *           * *      * *



0:49 - 1:07
Pre-chorus           x2                         x2
D|-------------------||-------------------------||----------|
A|-------------------||-------------------------||----------|
F|-------------------||-------------------------||----------|
C|-------------------||--------8p7-10p8---------||-8~----5~-| (x2)
G|-00-5-8-7p5-000-00-||--00-12----------000-00--||-8~----5~-|
C|-00--0-0----000-00-||--00---0---0-----000-00--||-8~----5~-|
   **  * *    *** **     **   *   *     *** **  



Chorus 1       1:07 - 1:25
Gtr1 part first x2                                  1:25 "FOR US ALL"
D|---------------------------------------------|    ---------------|
A|---------------------------------------------|    ---------------|
F|---------------------------------------------|    ---------------|
C|-------------5~7-5---10~----------0~---------| x2 -8~-----5~-----|
G|-88-12-10h12-5~---8--10~13--12h13-0~13-12-10-|    -8~-----5~-----|
C|-88---0------5~-5----10~--10------0~--0--0---|    -8~-----5~-----|
   **   *         *         *           *  *



                                       play this at the
Breakdown     1:32 - 2:03              end of the 4th time
D|------------------------------||     ----------|
A|------------------------------||     ----------|
F|------------------------------||     ----------|
C|-0---0---000000--0-00000-00---|| x4  -8~--10~--|  ((x2)) 
G|-0---0---000000--0-00000-00---||     -8~--10~--|
C|-0---0---000000--0-00000-00---||     -8~--10~--|
   *   *   ******  * ***** **
Let the higher 'C' ring out more towards the end




Build up part      2:03 - 2:36
D|-------------------------------------------------------------------------------|
A|-------------------------------------------------------------------------------|
F|-------------------------------------------------------------------------------|
C|-0~---------------------------10~----------------------------------------------|
G|-0~-000-000-000-000-000-0-0-0-10~-101010-101010-101010-101010-101010-10-10-10--|
C|-0~-000-000-000-000-000-0-0-0-10~-101010-101010-101010-101010-101010-10-10-10--|..
||    *** *** *** *** *** * * *     * * *  * * *  * * *  * * *  * * *  *  *  *                     
D|--------------------------------------------------------------|    ||-----------------|
A|--------------------------------------------------------------|    ||-----------------|
F|--------------------------------------------------------------|    ||-----------------|
C|-7~---------------------------8~-------777888777------777888--| x3 ||-----------------|
G|-7~-777-777-777-777-777-7-7-7-8~-101010---------101010--------|    ||-0-0-0-0-0---3#--|
C|-7~-777-777-777-777-777-7-7-7-8~------------------------------|    ||-0-0-0-0-0-------|
      *** *** *** *** *** * * *                                         * * * * * 




Verse (gtr1 part)( 2:36 - 2:43) then..
D|---------|
A|---------|
F|---------|
C|---------|
G|-00--33--|
C|-00--33--|
   **  ** 
Gtr2 Cont.       2:44
D|-------------------------------------------------------|
A|-------------------------------------------------------|
F|-------------------------------------------------------|
C|-00---------------------------88-----------55----------| x2
G|-00-8-12-10p8---10h12---15\12-88-13-12-10~-55-8-10-12~-|
C|-00--0--0----0-0-----0-0------88---0--0----55--0--0----|
       *  *    * *     * *           *  *        *  *





Pre - Breakdown 2:54
D|---------|---------|-s-s-s-|-------|--------------|
A|--Gtr1---|--Gtr2---|-n-n-n-|-b-b-b-|-Gtr1 & Gtr2--|
F|---------|---------|-a-a-a-|-a-a-a-|--------------|
C|-000-000-|-000-000-|-r-r-r-|-s-s-s-|-000----------|
G|-000-000-|-000-000-|-e-e-e-|-s-s-s-|-000--3#------|
C|-000-000-|-000-000-|-------|-------|-000----------|


"Make Them Suffer"  3:00             3:04              3:07             3:11
D|-----------------|----------------|-----------------|----------------|-----------------|
A|-----------------|----------------|-----------------|----------------|-----------------|
F|-----------------|----------------|-----------------|----------------|-PAY THE PRICE---|
C|-000-000-000-000-|----------------|-----------------|----------------|---------000-----|
G|-000-000-000-000-|-------5-8-7-3#-|-8-----7---5-4---|-------5-8-7-3#-|---------000-----|
C|-000-000-000-000-|-0-5-8----------|---5-7---0-----8-|-0-5-8----------|---------000-----|
   *** *** *** ***   * * * * * *      * * * * * * * *   * * * * * *              ***
Go back to the ^ after ever ending.
                    3:15             3:19              3:22             3:26
D|-----------------|----------------|-----------------|----------------|-----------------|
A|-----------------|----------------|-----------------|----------------|-----------------|
F|-----------------|----------------|-----------------|----------------|-----------------|
C|-000-000-000-000-|----------------|-----------------|----------------|-----------------|
G|-000-000-000-000-|-5tr-8tr-4tr-7tr|-8tr-5tr-7tr-4tr-|-5tr-8tr-4tr-7tr|-8tr-5tr-7tr-4tr-|
C|-000-000-000-000-|----------------|-----------------|----------------|-----------------|
   *** *** *** ***  



                         Play Chorus  (3:28 - 3:46)


3:46 Pre-solo
D|----------|
A|----------|
F|----------|
C|-8~----5~-|
G|-8~----5~-|
C|-8~----5~-|
|| 3:51
D|-----------------------------------------------|
A|-----------------------------------------------|
F|-7~----------9~----------10~---------12~-------|
C|-x--(x16)----x--(x16)----x--(x16)----x--(x16)--| (x4)
G|-5~----------7~----------8~----------10~-------|
C|-----------------------------------------------|
^ He keep changing back between the octaves for very short
periods of time closer to the end. but its too hard to 
type out. ^this still stands as good.

DONE!! cheers.
Tap to rate this tab
 
# A B C D E F G H I J K L M N O P Q R S T U V W X Y Z