Song name
# A B C D E F G H I J K L M N O P Q R S T U V W X Y Z

Sea Wolf - Middle Distance Runner tab

Tabbed by: Spudster75
Email: yourbuddyspuddy@aol.com

Tuning: EADGBe

I have a lot of this song, but its not perfect yet.


       F                              F
e|---1--------------------------------1--------------------------------------|
B|------------3---1------1----1---------------3----1------1----1-------------|
G|-------2-----2---2-------2---2---------2-----2----2------2----2------------|
D|---3--------------------------------3--------------------------------------|
A|---------------------------------------------------------------------------|
E|---------------------------------------------------------------------------|
      Same thing but slide it to the 6th fret
e|----1-----------------------------/---6------------------------------------|
B|----------3----1------1----1------/---------8----6-----6----6--------------|
G|-------2----2----2------2----2----/------7----7----7-----7----7------------|
D|----3-----------------------------/----8-----------------------------------|
A|---------------------------------------------------------------------------|
E|---------------------------------------------------------------------------|
  Chorus
... but i'll on--ly ever be
e|---------------------------------------------------------------------------|
B|-----------6---5----3----1-------------------------------------------------|
G|-----------7---5----3----2-------------------------------------------------|
D|---------------------------------------------------------------------------|
A|---------------------------------------------------------------------------|
E|---------------------------------------------------------------------------|
.... a middle distance runn---er
e|---------------------------------------------------------------------------|
B|------6---5-----3---1-----3----5-----6-------------------------------------|
G|------7---5-----3---2-----3----5-----7-------------------------------------|
D|---------------------------------------------------------------------------|
A|---------------------------------------------------------------------------|
E|---------------------------------------------------------------------------|



| /  slide up
| \  slide down
| h  hammer-on
| p  pull-off
| ~  vibrato
| +  harmonic
| x  Mute note
===============================================================================
Tap to rate this tab
# A B C D E F G H I J K L M N O P Q R S T U V W X Y Z