Guitaretab - guitar tabs
Song name
# A B C D E F G H I J K L M N O P Q R S T U V W X Y Z

Sea Wolf - The Rose Captain tab

The Rose Captain - Sea Wolf
Tabbed by Omar Khan


e |-----------------| x6
B |-----------------|
G |-----------------|
D |-----5-------5---|
A |---2---2---2---2-|
E |-3-------0-------|
[ Tab from: ]
e |------------------------------------|
B |------------------------------------|
G |------------------------------------|
D |-----7-------7-------10--------12---|
A |---7---7---7---7---7----7----9----9-|
E |-5-------5-------8--------10--------|

keep going with first riff

Chorus: coming soon

***I'd been looking for this tab for a while and couldn't find it, so I decided to tab 
myself. I haven't figured out the chorus yet, but I'll update as soon as I have. Let me 
if you think there's anything wrong with it.
Related for The Rose Captain tab