Sea Wolf - The Violet Hour tab

Intro
e|-----------------|
B|-3-x-3-x-3-x-3-3-|
G|-4-x-4-x-4-x-4-4-|
D|-5-x-5-x-5-x-5-5-|
A|-----------------|
E|-----------------|  x2

verse

e|------------------2-x-2-x-2-x-2-2-------------------2-x-2-x-2-x-2-2--|
B|-3-x-3-x-3-x-3-3--3-x-3-x-3-x-3-3--1-x-1-x-1-x-1-1--3-x-3-x-3-x-3-3--|
G|-4-x-4-x-4-x-4-4--4-x-4-x-4-x-4-4--2-x-2-x-2-x-2-2--2-x-2-x-2-x-2-2--|
D|-5-x-5-x-5-x-5-5--4-x-4-x-4-x-4-4--2-x-2-x-2-x-2-2-------------------|
A|---------------------------------------------------------------------|
E|---------------------------------------------------------------------| X2

chorus

e|--------------2-2-2-2-2-2---------------2-2-2-2-2-2-|
B|-3-3-3-3-3-3--3-3-3-3-3-3--1-1-1-1-1-1--3-3-3-3-3-3-|
G|-4-4-4-4-4-4--4-4-4-4-4-4--2-2-2-2-2-2--2-2-2-2-2-2-|
D|-5-5-5-5-5-5--4-4-4-4-4-4--2-2-2-2-2-2--------------|
A|----------------------------------------------------|
E|----------------------------------------------------|  x2

second verse

e|------------------2-x-2-x-2-x-2-2-------------------2-x-2-x-2-x-2-2--|
B|-3-x-3-x-3-x-3-3--3-x-3-x-3-x-3-3--1-x-1-x-1-x-1-1--3-x-3-x-3-x-3-3--|
G|-4-x-4-x-4-x-4-4--4-x-4-x-4-x-4-4--2-x-2-x-2-x-2-2--2-x-2-x-2-x-2-2--|
D|-5-x-5-x-5-x-5-5--4-x-4-x-4-x-4-4--2-x-2-x-2-x-2-2-------------------|
A|---------------------------------------------------------------------|
E|---------------------------------------------------------------------| X2

second chorus
e|--------------2-2-2-2-2-2---------------2-2-2-2-2-2-|
B|-3-3-3-3-3-3--3-3-3-3-3-3--1-1-1-1-1-1--3-3-3-3-3-3-|
G|-4-4-4-4-4-4--4-4-4-4-4-4--2-2-2-2-2-2--2-2-2-2-2-2-|
D|-5-5-5-5-5-5--4-4-4-4-4-4--2-2-2-2-2-2--------------|
A|----------------------------------------------------|
E|----------------------------------------------------|  x2

in the bridge...

e|--------------------------2-2-2-|
B|-1-1-1--1-1-1--3-3-3-3-3--3-3-3-|
G|-2-2-2--0-0-0--4-4-4-4-4--4-4-4-|
D|-2-2-2--2-2-2--5-5-5-5-5--4-4-4-|
A|--------3-3-3-------------------|
E|--------------------------------|  X2

after the bridge

e|------------------2-x-2-x-2-x-2-2--|
B|-3-x-3-x-3-x-3-3--3-x-3-x-3-x-3-3--|
G|-4-x-4-x-4-x-4-4--4-x-4-x-4-x-4-4--|
D|-5-x-5-x-5-x-5-5--4-x-4-x-4-x-4-4--|
A|-----------------------------------|
E|-----------------------------------|  x2

third chorus

e|--------------2-2-2-2-2-2---------------2-2-2-2-2-2-|
B|-3-3-3-3-3-3--3-3-3-3-3-3--1-1-1-1-1-1--3-3-3-3-3-3-|
G|-4-4-4-4-4-4--4-4-4-4-4-4--2-2-2-2-2-2--2-2-2-2-2-2-|
D|-5-5-5-5-5-5--4-4-4-4-4-4--2-2-2-2-2-2--------------|
A|----------------------------------------------------|
E|----------------------------------------------------|  x4

in the end still playing this part to end the song

e|------------------2-x-2-x-2-x-2-2--|
B|-3-x-3-x-3-x-3-3--3-x-3-x-3-x-3-3--|
G|-4-x-4-x-4-x-4-4--4-x-4-x-4-x-4-4--|
D|-5-x-5-x-5-x-5-5--4-x-4-x-4-x-4-4--|
A|-----------------------------------|
E|-----------------------------------|
Tap to rate this tab
 
# A B C D E F G H I J K L M N O P Q R S T U V W X Y Z