Sea Wolf - Leaves In The River tab

Tab by: Grady Perrine
Bits and pieces were taken from Brennan LaBuda's tab.

Intro:

e--13-13-13-13-13-13-13-13-|
B-14-14-14-14-14-14-14-14--|
G--------------------------|  Repeat a lot
D--------------------------|
A--------------------------|
E--------------------------|

Pre-Verse 1
e-1--1--1--1--1--1--1--1---|
B--2--2--2--2--2--2--2--2--|
G--------------------------|
D--------------------------|   Play this part before the first verse
A--------------------------|
E--------------------------|

Verse 1 & 3: 
e-1--1--1--1--2--2--2--2---------------------------|
B--2--2--2--2--4--4--4--4--1--1--1--1--2--2--2--2--|
G---------------------------1--1--1--1--1--1--1--1-|
D--------------------------------------------------|
A--------------------------------------------------|
E--------------------------------------------------|

Piano bit: It also sounds good an octave lower.
e-16---13--16--14-16-14-13--------14-16-14-13-------16-13---|
B--------------------------16-----------------16------------|
G-----------------------------------------------------------|
D-----------------------------------------------------------|
A-----------------------------------------------------------|
E-----------------------------------------------------------|

Verse 2 & during Piano bit:
  C#              D#              G#              C#
e-----------------------------------------------------------------|
B-6-6-6-6-6-6-6-6-7-7-7-7-7-7-7-7-----------------6-6-6-6-6-6-6-6-|
G-6-6-6-6-6-6-6-6-8-8-8-8-8-8-8-8-5-5-5-5-5-5-5-5-6-6-6-6-6-6-6-6-|
D-6-6-6-6-6-6-6-6-8-8-8-8-8-8-8-8-6-6-6-6-6-6-6-6-6-6-6-6-6-6-6-6-|
A-4-4-4-4-4-4-4-4-6-6-6-6-6-6-6-6-6-6-6-6-6-6-6-6-4-4-4-4-4-4-4-4-|
E---------------------------------4-4-4-4-4-4-4-4-----------------|

Verse 3: This plays at the second half of verse 3

e--13-13-13-13-13-13-13-13-14-14-14-14-14-14-14-14-|
B-14-14-14-14-14-14-14-14-16-16-16-16-16-16-16-16--|
G--------------------------------------------------|
D--------------------------------------------------|
A--------------------------------------------------|
E--------------------------------------------------|

e--------------------------------------------------|
B--13-13-13-13-13-13-13-13-14-14-14-14-14-14-14-14-|
G-13-13-13-13-13-13-13-13-13-13-13-13-13-13-13-13--|
D--------------------------------------------------|
A--------------------------------------------------|
E--------------------------------------------------|

Enjoy!!! And thanks for listening to great music.
Tap to rate this tab
 
# A B C D E F G H I J K L M N O P Q R S T U V W X Y Z