Song name
# A B C D E F G H I J K L M N O P Q R S T U V W X Y Z

Sea Wolf - Black Leaf Falls tab

-------------------------------------------------------------------------------
			     BLACK LEAF FALLS - Sea Wolf
-------------------------------------------------------------------------------
Tabbed by: Sean
Email: chaossoldier17@hotmail.com

I can't say it's 100% perfect, but it seems right and it sounds good.

Tabbed using this video of a live performance of the song:
http://www.youtube.com/watch?v=JmKqSxi3tS4&feature=related

Tuning: Standard. Capo on 2nd fret.

Intro:

     Am        F         G         C    E
e|------------------------------------------| 
B|-----2--------------1---------0----1----0-|
G|-----2----2----2----2----0----0----0----1-|
D|-----1----2----3----3----0----0----2----2-|
A|---0------0----3--3------2--2----3----2---|
E|--------0----1---------3------------------|
  
    Am        F         G         C    E
|-------------------------------------------|---------------------|
|-----2--------------1---------0-----1----0-|----1----1----1----1-|
|-----2----2----2----2----0----0-----0----1-|----2----2----2----2-|
|-----1----2----3----3----0----0----2----2--|----2----2----2----2-|
|---0------0----3--3------2--2----3----2----|--0---------0--------|
|--------0----1---------3-------------------|-------0---------0---|
                                              Transition to Verse
Verses:

     Am        F         G         C    E
e|------------------------------------------| x3
B|-----2--------------1---------0----1----0-|
G|-----2----2----2----2----0----0----0----1-|
D|-----1----2----3----3----0----0----2----2-|
A|---0------0----3--3------2--2----3----2---|
E|--------0----1---------3------------------|

    Am        F         G         C    E
|-------------------------------------------|
|-----2--------------1---------0-----1----0-|
|-----2----2----2----2----0----0-----0----1-|
|-----1----2----3----3----0----0----2----2--|
|---0------0----3--3------2--2----3----2----|
|--------0----1---------3-------------------|

Chorus:
    
     F                   Am                  E                   C
e|------------------------------------------------------------------------------------|
B|-----1----1----1----1----1----1----1----1----0----0----0----0----1----1----1----1---|
G|-----2----2----2----2----2----2----2----2----1----1----1----1----0----0----0----0---|
D|-----3----3----3----3----2----2----2----2----2----2----2----2----2----2----2----2---|
A|--------3---------3----0---------0--------------2---------2----3---------3----------|
E|---1---------1--------------0---------0----0---------0--------------0---------0-----|
  
     F                   Am                  E                   C         E
e|------------------------------------------------------------------------------------|
B|-----1----1----1----1----1----1----1----1----0----0----0----0----1----1----0----0---|
G|-----2----2----2----2----2----2----2----2----1----1----1----1----0----0----1----1---|
D|-----3----3----3----3----2----2----2----2----2----2----2----2----2----2----2----2---|
A|--------3---------3----0---------0--------------2---------2----3---------2----------|
E|---1---------1--------------0---------0----0---------0--------------0---------0-----|

Bridge: Same chords as in the chorus, but play just the bass notes.

Intro
Am Transition
Verse 1
Chorus
Intro Pattern
Verse 2
Chorus
Bridge
Chorus
Outro (which is just the verse pattern)

************************************

| /   slide up
| \   slide down
| h   hammer-on
| p   pull-off
| ~   vibrato
| +   harmonic
| x   Mute note
| b   Bend
| pb  Pre-bend
| br  Bend release
| pbr Pre-bend release
| brb Bend release bend

************************************
Tap to rate this tab
# A B C D E F G H I J K L M N O P Q R S T U V W X Y Z