Song name
# A B C D E F G H I J K L M N O P Q R S T U V W X Y Z

Sea Wolf - Youre A Wolf tab

Hey this is my first Tab hope you enjoy, its not yet complete (i still need to tab out 
last part)but hopefully this is good enough to get you started...

order:
Acoustic: intro,1,2,1,2,1,2,3,4,1,2,1,2,3,4.....
Electric: 1,2,3,4,5,1,3,4,5,1....

Gtr 2 (acoustic)
(intro)          (1)
-------0--0-|   |-------0--0--------0--0-|-------0--0--------0--0-|x3
-------0--0-|   |-------0--0--------0--0-|-------0--0--------0--0-|
-------0--0-|   |-------0--0--------0--0-|-------0--0--------0--0-|
-------2--2-|   |-------0--0--------0--0-|-------0--0--------0--0-|
-------2--2-|   |-5--5--5--5--7--7--7--7-|-2--2--2--2--2--2--2--2-|
-------0--0-|   |-3--3--3--3--5--5--5--5-|-0--0--0--0--0--0--0--0-|

Gtr 2 (acoustic)(2)

-------0--0--------0--0|--------0--0--------0--0|
-------0--0--------0--0|--------0--0--------0--0|
-------0--0--------0--0|--------0--0--------0--0|
-------0--0--5--5--5--5|--------2--2--------2--2|
-5--5--5--5--3--3--3--3|--2--2--2--2--2--2--2--2|
-3--3--3--3--x--x--x--x|--0--0--0--0--0--0--0--0|

Gtr 2 (acoustic)(3)
-0-0-0-0-0-0-0-0|-0-0-0-0-0-0-0-0|-0-0-0-0-2-2-2-2|-0-0-0-0-0-0-0-0|x2
-0-0-0-0-0-0-0-0|-0-0-0-0-0-0-0-0|-0-0-0-0-4-4-4-4|-0-0-0-0-0-0-0-0|
-0-0-0-0-0-0-0-0|-0-0-0-0-0-0-0-0|-0-0-0-0-4-4-4-4|-0-0-0-0-0-0-0-0|
-0-0-0-0-0-0-0-0|-5-5-5-5-5-5-5-5|-0-0-0-0-4-4-4-4|-2-2-2-2-2-2-2-2|
-7-7-7-7-7-7-7-7|-3-3-3-3-3-3-3-3|-5-5-5-5-2-2-2-2|-2-2-2-2-2-2-2-2|
-5-5-5-5-5-5-5-5|-x-x-x-x-x-x-x-x|-3-3-3-3-x-x-x-x|-0-0-0-0-0-0-0-0|

Gtr 2 (acoustic)(4)
-0-0-0-0-2-2-2-2|-0-0-0-0-0-0-0-0|-0-0-0-0-0-2-2-2|
-0-0-0-0-4-4-4-4|-0-0-0-0-0-0-0-0|-0-0-0-0-0-3-3-3|
-0-0-0-0-4-4-4-4|-0-0-0-0-0-0-0-0|-0-0-0-0-0-3-3-3|
-0-0-0-0-4-4-4-4|-2-2-2-2-2-2-2-2|-5-5-5-5-5-3-3-3|
-5-5-5-5-2-2-2-2|-2-2-2-2-2-2-2-2|-3-3-3-3-3-2-2-2|
-3-3-3-3-x-x-x-x|-0-0-0-0-0-0-0-0|-x-x-x-x-x-x-x-x|

Gtr 1 (electric)(1)
---------|---------|x8
-8-8-8-8-|8-8-1010-|
--9-9-9-9|-9-9-9-9-|
---------|---------|
---------|---------|
---------|---------|

Gtr 1 (electric)(2) comes in at about 0:46
Crescendo in (yes those are 11's not 1's)
-------------|-----------------|--------------|---------------|---------------|
-------------|-----------------|--------------|---------------|---------------|
------9-9-9-9|-9-9-9-9/11111111|-9-9-9-9-9-9-9/7-7-7-7/9-9-9-9|9-9-9-9-9-9-9-9|
-------------|-----------------|--------------|---------------|---------------|
------7-7-7-7|-7-7-7-7/9-9-9-9-|-7-7-7-7-7-7-7/5-5-5-5/7-7-7-7|7-7-7-7-7-7-7-7|
-------------|-----------------|--------------|---------------|---------------|

Gtr 1 (electric) (3)
----------------|----------------|x4
----------------|----------------|
-----9-9-----7-7|----------------|
----------------|-----9-9-----9-9|
-7-7-----7-7----|-7-7-----7-7----|
----------------|----------------|

Gtr 1 (electric) (4)
----------------|---------------|-------------------|---------------|x2
----------------|---------------|-------------------|---------------|
-9-9-9-9-9-9-9-9/5-5-5-5-5-5-5-5/12-12-12-12/8-8-8-8/9-9-9-9-9-9-9-9|
----------------|---------------|-------------------|---------------|
-7-7-7-7-7-7-7-7/3-3-3-3-3-3-3-3/10-10-10-10/6-6-6-6/7-7-7-7-7-7-7-7|
----------------|---------------|-------------------|---------------|

Gtr 1 (electric) (5)
--------------------|---------------|----------------|
--------------------|---------------|----------------|
-12-12-12-12/8-8-8-8/9-9-9-9-9-9-9-9|-9-9-9-9/8-8-8-8|
--------------------|---------------|----------------|
-10-10-10-10/6-6-6-6/7-7-7-7-7-7-7-7|-7-7-7-7/6-6-6-6|
--------------------|---------------|----------------|
Tap to rate this tab
 
# A B C D E F G H I J K L M N O P Q R S T U V W X Y Z