Song name
# A B C D E F G H I J K L M N O P Q R S T U V W X Y Z

Sea Wolf - Leaves In The River tab

Tab by: Brennan LaBuda


e-1--1--1--1--2--2--2--2---------------------------|
B--2--2--2--2--4--4--4--4--1--1--1--1--2--2--2--2--|
G---------------------------1--1--1--1--1--1--1--1-|
D--------------------------------------------------|
A--------------------------------------------------|
E--------------------------------------------------|

Strum Down & Up
  C#              D#              G#              C#
e-----------------------------------------------------------------|
B-6-6-6-6-6-6-6-6-7-7-7-7-7-7-7-7-----------------6-6-6-6-6-6-6-6-|
G-6-6-6-6-6-6-6-6-8-8-8-8-8-8-8-8-5-5-5-5-5-5-5-5-6-6-6-6-6-6-6-6-|
D-6-6-6-6-6-6-6-6-8-8-8-8-8-8-8-8-6-6-6-6-6-6-6-6-6-6-6-6-6-6-6-6-|
A-4-4-4-4-4-4-4-4-6-6-6-6-6-6-6-6-6-6-6-6-6-6-6-6-4-4-4-4-4-4-4-4-|
E---------------------------------4-4-4-4-4-4-4-4-----------------|

The picking part can also be played by picking the bottom 2 notes of the chords, but it 
easier the other way.
-Enjoy-
Tap to rate this tab
# A B C D E F G H I J K L M N O P Q R S T U V W X Y Z