Song name
# A B C D E F G H I J K L M N O P Q R S T U V W X Y Z

Seafood - Splinter tab

1 is thickest string, 6 is thinnest

Begins by batting strings

Chorus:
2:-------------------------2--2--2-2--3--3--2--2-2
3:-4--4--4-4--4--4--5--5-5-2--2--2-2--3--3--2--2-2
4:-4--4--4-4--4--4--5--5-5------------------------

2:-3--3--3-3--2--2--2--2-2--3--3--3-3--2--2--2--2-2
3:-3--3--3-3--2--2--2--2-2--3--3--3-3--2--2--2--2-2

Verse:
1:--------------------3------
2:-0-----2----------------3--
3:----2-----2--2--2-2---0---0

Instrumental part:
2:-4--4-4---7-7---4--4-4-------4--4-4---7-7--9-10-9-10-10-10
3:-4--4-4---7-7---4--4-4--4-4--4--4-4---7-7--9-10-9-10-10-10
4:------------------------4-4-------------------------------

And thats about it! If you dont like it im sorry its my first tab ok? I havnt put the background guitar in because I cant work it out.
Tap to rate this tab
# A B C D E F G H I J K L M N O P Q R S T U V W X Y Z