Song name
# A B C D E F G H I J K L M N O P Q R S T U V W X Y Z

Seahaven - Goodnight Acoustic tab

----------------------------------------------------------------
                             Goodnight Acoustic - Seahaven
-------------------------------------------------------------------------------
Tabbed by: chris kostov
E-mail:xchrishxc@gmail.com
Firstly, this is my first tab and its still unfinished. I will try to complete it as 
soon as possible luckily with your help. I mostly done it by ear. If you want to help me 
tabbing it use this http://www.youtube.com/watch?v=09VitRBqsQ8
Tuning: Drop C#
guitar 1 intro
e|-------------------------------------------------------------------|
B|-------------------------------------------------------------------|
G|-------------------------------------------------------------------|
D|---7--h9-------------5---------7--h9--------------5----7--8-----9--|
A|---x---x----X3-------5---------x---x-----X3-------5----7--8-----9--|
E|---9---9-------------5---------9---9--------------5----7--8-----9--|
lead guitar intro
e|--------------------------------------------------------------------------------------|
B|--------------------------------------------------------------------------------------|
G|--14-----16---------------7--11--7--9------14--16-----7--11--7--9----11-9------6---7--|
D|---x------x-----X3--------x--x---x--x-------x---x-x3--x--x---x--x----x--x------x---x--|
A|--12-----14---------------5--9---5--7------12--14-----5--9---5--7----9--7------4---5--|
E|--------------------------------------------------------------------------------------|
I and not really sure about the verse cause im still new at tabbing and its hardly hear 
it and its also difficult to tab it by  the video.

chorus guitar 1
e|---------------------------------------------------------------------------------|
B|---------------------------------------------------------------------------------|
G|---------------------------------------------------------------------------------|
D|----5------7---------55-xx-77---9999----77----55-xx-77--9999----77--55--77---99--|
A|----5------7---------55-xx-77---9999----77----55-xx-77--9999----77--55--77---99--|
E|----5------7---------55-xx-77---9999----77----55-xx-77--9999----77--55--77---99--|      .

bridge guitar 1

e|--------------------------------------------------------------------------------|
B|--------------------------------------------------------------------------------|
G|--------------------------------------------------------------------------------|
D|---5-7--4---9-7--5-7---0--12--5--7--89--7-5--7--0----9-7-12-7-------------------|
A|---5-7--4---9-7--5-7---0--12--5--7--89--7-5--7--0----9-7-12-7-------------------|
E|---5-7--4---9-7--5-7---0--12--5--7--89--7-5--7--0----9 7-12-7-------------------|

Leave a feedback and suggestion. Its open for changes. email me with questions.
************************************

| /   slide up
| \   slide down
| h   hammer-on
| p   pull-off
| ~   vibrato
| +   harmonic
| x   Mute note
| b   Bend
| pb  Pre-bend
| br  Bend release
| pbr Pre-bend release
| brb Bend release bend

************************************
Tap to rate this tab
 
# A B C D E F G H I J K L M N O P Q R S T U V W X Y Z