Song name
# A B C D E F G H I J K L M N O P Q R S T U V W X Y Z

Seahaven - Save Me tab

-------------------------------------------------------------------------------
                             Save Me - Seahaven
-------------------------------------------------------------------------------


e|----------------------------------------------------------------------------|
B|----------------------------------------------------------------------------|
G|----------------------------------------------------------------------------|
D|--777777777777777777777-2222/5555-------------------------------------------|x2
A|--777777777777777777777-2222/5555-------------------------------------------|x2
E|--777777777777777777777-2222/5555-------------------------------------------|x2
     ******************** ***  ***

e|---------------------------------------------------------------------------|
B|---------------------------------------------------------------------------|
G|---------------------------------------------------------------------------|
D|-7777-4/55-000-4/55-x4-----------------------------------------------------|
A|-7777-4/55-000-4/55-x4-----------------------------------------------------|
E|-7777-4/55-000-4/55-x4-----------------------------------------------------|

e|---------------------------------------------------------------------------|
B|---------------------------------------------------------------------------|
G|---------------------------------------------------------------------------|
D|-5-0-0h4-4h55----x3-5------------------------------------------------------|
A|-5-0-0h4-4h55----x3-5------------------------------------------------------|
E|-5-0-0h4-4h55----x3-5------------------------------------------------------|


first submit, figure out the strumming :)
Tap to rate this tab
 
# A B C D E F G H I J K L M N O P Q R S T U V W X Y Z