Song name
# A B C D E F G H I J K L M N O P Q R S T U V W X Y Z

Seahaven - Goodnight tab

Drop D

Guitar 1
[0:00]-[0:05]
|----------------------------|
|----------------------------|
|----------------------------|
|------9--9--9--9--9--9--11--|
|--11---11-11-11-11-11-11----|
|--11------------------------|
|
|x2

Guitar 1
[0:05]-[0:27]
|------------------------------------------------|
|------------------------------------------------|
|------------------------------------------------|
|---9--9--9--9---9--9--9--9---9--9--9--9---9-11--|
|--11-11-11-11--11-11-11-11--11-11-11-11--11-11--|   2nd time through
|--11-11-11-11--11-11-11-11--11-11-11-11--11-11--|<--play this part x3
|
|------------------------------------------------|-------------------------|
|------------------------------------------------|-------------------------|
|------------------------------------------------|-------------------------|
|--7----7-7---9-----9--9--7----7-7--7----7-7-----|--8888-8888-8--6-6-6-6~--|
|--7----7-7--11----11-11--7----7-7--9----9-9-----|--8888-8888-8--6-6-6-7~--|
|--7----7-7--11----11-11--7----7-7--9----9-9-----|--8888-8888-8------------|
|
|x2

Guitar 2
[0:05]-[0:27]
|----------------------|
|--4-444-4444-4444-46--|
|----------------------|
|----------------------|
|----------------------|   2nd time through
|----------------------|<--play this part x3
|
|-----------------------|----------------------|
|-----------------------|----------------------|
|--2222/6-66\2-22/4-44--|--6666-6666-6--1112~--|
|-----------------------|----------------------|
|-----------------------|----------------------|
|-----------------------|----------------------|


Guitar 1
[0:51]-[1:15]
|-------------------------------------------------|
|-------------------------------------------------|
|-------------------------------------------------|
|-----9~----------9~----------9~----------9~------|
|---7----7-7----7----7-7----7----7-7----7----7-7--|
|--9-9----9----9-9----9----9-9----9----9-9----9---|
|
|-------------------------------------------------|
|-------------------------------------------------|
|-------------------------------------------------|
|-----4~----------4~----------6~----------4~------|
|---7----7-7----7----7-7----7----7-7----7----7-7--|
|--7-7----7----7-7----7----7-7----7----7-7----7---|
|
|x2


                                 2nd time through play the 14th fret
                                               ||
Guitar 2                                       ||
[0:51]-[1:15]                                  \/
|------------------------------------------------------------------------------|
|--------12~----------------12~----------------12~-----------------12~---------|
|----13------13--13-----13------13--13-----13------13--13------13------13--13--|
|--14--14------14-----14--14------14-----14--14------14------14--14------14----|
|------------------------------------------------------------------------------|
|------------------------------------------------------------------------------|
|
|--------------------------------------------------------------------|
|--------------------------------------------------------------------|
|----11--11--11--11--11--11-9-999----13--13--13--13--11--11--11--11--|
|--14--14--14--14--14--14----------14--14--14--14--14--14--14--14----|
|--------------------------------------------------------------------|
|--------------------------------------------------------------------|
|
|x2

Guitar 1
[1:15]-[1:20]
|--------------------------------------------|
|--------------------------------------------|
|--------------------------------------------|
|--7-----------------------------------------|
|--7--7777-7777-7777-77-9999-9999-9999-9999--|
|--7--7777-7777-7777-77-9999-9999-9999-9999--|
pm    .... .... .... .. .... .... .... ....


Guitar 2
[1:15]-[1:20]
|---------------|
|-------9~------|
|----9-----9-9--|
|-----------9---|
|--11-11--------|
|---------------|
|
|x4

BEGIN CHORUS

Guitar 1
[1:20]-[1:33]
|------------------------------------------------------------|
|------------------------------------------------------------|
|------------------------------------------------------------|
|--77----99--11-11-11-11--11-11-11-11--11-11-11-11--9-9-9-9--|
|--77----99--11-11-11-11--11-11-11-11--11-11-11-11--9-9-9-9--|
|--77----99--11-11-11-11--11-11-11-11--11-11-11-11--9-9-9-9--|
|
|--------------------------------------------------------------------|
|--------------------------------------------------------------------|
|--------------------------------------------------------------------|
|--77-x-xxx-99-x-xxx--11-11-11-11--11-11-11-11--11-11-11-11-9-9-9-9--|
|--77-x-xxx-99-x-xxx--11-11-11-11--11-11-11-11--11-11-11-11-9-9-9-9--|
|--77-x-xxx-99-x-xxx--11-11-11-11--11-11-11-11--11-11-11-11-9-9-9-9--|

Guitar 2
[1:21]-[1:24] & [1:27]-[1:30]
|---------------------------------|
|------5--------------------------|
|--------4\1-1/4-------4\1---1/4--|
|--------------------------2------|
|---------------------------------|
|---------------------------------|

Guitar 1
[1:33]-[1:45]
|--------------------------------|
|--------------------------------|
|--------------------------------|
|--7-------9-------11-------9----|
|--7-------9-------11-------9----|
|--7x8-----9x8-----11x8-----9x8--|
|
|----------------------|
|----------------------|
|----------------------|
|--77------99------2~--|
|--77------99------2~--|
|--77------99------2~--|

Guitar 2
[1:39]-[1:42]
|--------------------------------|
|--------------------------------|
|--4\1-1---1------4\1-1----------|
|--------2--------------2-2--2~--|
|--------------------------------|
|--------------------------------|

END CHORUS

Guitar 1           This part is very difficult to hear.
[1:45]-[2:09]      This is the best I can do.
|------------------------------------------------------|
|------------------------------------------------------|
|------------------------------------------------------|
|------------------------------------------------------|
|---7--7--7--7---7--7--7--7---7--7--7--7---7--7--7--7--|
|--11-11-11-11--11-11-11-11--11-11-11-11--11-11-11-11--|
|pm .  .  .  .   .  .  .  .   .  .  .  .   .  .  .  .
|
|-----------------------------------------------------------------------|
|-----------------------------------------------------------------------|
|-----------------------------------------------------------------------|
|-----------------------------------------------------------------------|
|--7-7-7-7--7-7-7-7--7-7-7-7--7-7-7-7------7-----7---------7-----7------|
|--9-9-9-9--9-9-9-9--7-7-7-7--7-7-7-7--4h7-7-4h7-7-4h7-4h7-7-4h7-7-4h7--|
|pm. . . .  . . . .  . . . .  . . . .      .     .         .     .
|
|----------------------------------------|
|----------------------------------------|
|----------------------------------------|
|----------------------------------------|
|----7-7-7-7--7-7-7-7--7-7-7-7--7-7-7-7--|
|--7h9-9-9-9--9-9-9-9--9-9-9-9--9-9-9-9--|
|pm  . . . .  . . . .  . . . .  . . . .
|
|x2

                                 2nd time through play the 14th fret
                                               ||
Guitar 2                                       ||
[1:45]-[2:09]                                  \/
|------------------------------------------------------------------------------|
|--------12~----------------12~----------------12~-----------------12~---------|
|----13------13--13-----13------13--13-----13------13--13------13------13--13--|
|--14--14------14-----14--14------14-----14--14------14------14--14------14----|
|------------------------------------------------------------------------------|
|------------------------------------------------------------------------------|
|
|--------------------------------------------------------------------|
|--------------------------------------------------------------------|
|----11--11--11--11--11--11-9-999----13--13--13--13--11--11--11--11--|
|--14--14--14--14--14--14----------14--14--14--14--14--14--14--14----|
|--------------------------------------------------------------------|
|--------------------------------------------------------------------|
|
|x2


Guitar 1
[2:09]-[2:33]
|-------------------------------------------------------------------|
|-------------------------------------------------------------------|
|-------------------------------------------------------------------|
|--7---7-------7-------7-------7-------9-------9-------9-------9----|
|--7-7-7-7-7-7-7-7-7-7-7-7-7-7-7-7-9-9-9-9-9-9-9-9-9-9-9-9-9-9-9-9--|
|--7-7---7-7-7---7-7-7---7-7-7---7-9-9---9-9-9---9-9-9---9-9-9---9--|
|pm  .   . . .   . . .   . . .   . . .   . . .   . . .   . . .   .
|
|x4

Guitar 2
[2:09]-[2:33]
|---------------|
|-------9~------|
|----9-----9-9--|
|-----------9---|
|--11-11--------|
|---------------|
|pm. . .

Repeat Chorus
[2:33]-[2:54]

I have yet to tab the bridge. 

Repeat Chorus
[3:22]-[3:58]


Tap to rate this tab
# A B C D E F G H I J K L M N O P Q R S T U V W X Y Z