Song name
# A B C D E F G H I J K L M N O P Q R S T U V W X Y Z

Seahaven - Goodnight Acoustic tab

-----------------------------------------------------------------------------
                             Goodnight (Acoustic) - Seahaven
-----------------------------------------------------------------------------
Tabbed by: joeyfasanelli        

Tuning: Drop C#

This tab will show you where to put your fingers and when, but you'll
have to pick up the strum pattern on your own.


GUITAR 1 (Intro)

D#|-------------------------------------------------------------------------|
A#|-------------------------------------------------------------------------|
F#|-------------------------------------------------------------------------|
C#|-7--9----------5-----------7--9----------5--7-8--9-----------------------|
G#|-x--x---x3-----5-----------x--x---x3-----5--7-8--9-----------------------|
C#|-9--9----------5-----------9--9----------5--7-8--9-----------------------|



GUITAR 2 (Intro)[Come in at the third part of the first rhythm]

D#|-------------------------------------------------------------------------|
A#|-------------------------------------------------------------------------|
F#|-14--16-----7---11---7---9------14--16---------7---11--7--9--11--9--6--7-|
C#|-x---x------x---x----x---x------x---x----x3----x---x---x--x--x---x--x--x-|
G#|-12--14-----5---9----5---7------12--14---------5---9---5--7--9---7--4--5-|
C#|-------------------------------------------------------------------------|



GUITAR 1 (Verse)[1st part is palm muted]

D#|-------------------------------------------------------------------------|
A#|-------------------------------------------------------------------------|
F#|-------------------------------------------------------------------------|
C#|--------------------[------7--------------7-------------7-----------7----|
G#|-9-9-9-9-7-5-9-7--x2[--9----9---9----9-----9---9---9-----9---9---9---9--9|
C#|-9-8-7-6-5-5-7-7----[9---9----9----8---8-----8---7---7-----7---6---6---6-|

D#|-------------------------------------------------------------------------|
A#|-------------------------------------------------------------------------|
F#|-------------------------------------------------------------------------|
C#|-------0---------------0---------------0---------------0---------]-------|
G#|---7-------7---7---7-------7---7---9-------9---9---7-------7---7-]---x2--|
C#|-5---5---5---5---5---5---5---5---7---7---7---7---7---7---7---7---]-------|



GUITAR 2 (Verse)[Come in at the 2nd half of the verse]

D#|-------------------------------------------------------------------------|
A#|---------10------------------10----------------10------------10----------|
F#|----11-----11----11----11------11---11----11------11---11--11---11---11--|
C#|-12----12-----12----11-----11-----11---10----10-----10---9---9-----9-----|
G#|-------------------------------------------------------------------------|
C#|-------------------------------------------------------------------------|

D#|-------------------------------------------------------------------------|
A#|-------------------------------------------------------------------------|
F#|---9---9-9---9---9---7---9----11---11-11---11---9---9-9---9--------------|
C#|-8---8-----8---8---8---8----9----9-------9----9---9-----9----------------|
G#|-------------------------------------------------------------------------|
C#|-------------------------------------------------------------------------|

Repeat (The third note played on the 2nd string is played on the 12th fret*)

D#|-------------------------------------------------------------------------|
A#|---------10------------------10----------------12------------10----------|
F#|----11-----11----11----11------11---11----11------11---11--11---11---11--|
C#|-12----12-----12----11-----11-----11---10----10-----10---9---9-----9-----|
G#|-------------------------------------------------------------------------|
C#|-------------------------------------------------------------------------|

D#|-------------------------------------------------------------------------|
A#|-------------------------------------------------------------------------|
F#|---9---9-9---9---9---7---9----11---11-11---11---9---9-9---9--------------|
C#|-8---8-----8---8---8---8----9----9-------9----9---9-----9----------------|
G#|-------------------------------------------------------------------------|
C#|-------------------------------------------------------------------------|


GUITAR 1 (Pre-Chorus)[Each chord's first strum is open, then palm mute]

D#|-------------------------------------------------------------------------|
A#|-------------------------------------------------------------------------|
F#|-------------------------------------------------------------------------|
C#|-5-[5x-----]---7-[7x-----]-----------------------------------------------|
G#|-5-[5x--x14]---7-[7x--x14]-----------------------------------------------|
C#|-5-[5x-----]---7-[7x-----]-----------------------------------------------|


GUITAR 2 (Pre-Chorus)

D#|-------------------------------------------------------------------------|
A#|-------------------------------------------------------------------------|
F#|-[---------11---------]------------[---------11---------]----------------|
C#|-[---12-------12----12]---x2-------[---12-------12----12]---x2-----------|
G#|-[10----10-------10---]------------[12----12-------12---]----------------|
C#|-------------------------------------------------------------------------|


GUITAR 1 (Chorus)

D#|-------------------------------------------------------------------------|
A#|-------------------------------------------------------------------------|
F#|--------------------------------------------------------6--6-7-7---------|
C#|-[5-5----7-7-----9--7]------------------5-5---7-7---0---0--0-0-0---------|
G#|-[5-5----7-7-----9--7]-x2--5-7-9-9-9-9--5-5---7-7---0---0--0-0-0---------|
C#|-[5-5----7-7-----9--7]-----5-7-9-8-7-6--5-5---7-7---0---0--0-0-0---------|


GUITAR 2 (Chorus)


D#|-------------------------------------------------------------------------|
A#|-[---------------------------------3---2]--------------------------------|
F#|-[---------------------------------4---2]--------------------------------|
C#|-[5-5--7--4--4-4--7-7--7-2-2-2-4---4---x]--x2---5-5---7-7----------------|
G#|-[5-5-------------7-7--------------2---4]-------5-5---7-7---9-9-9-9------|
C#|-[5-5-------------7-7-------------------]-------5-5---7-7---9-8-7-6------|

D#|-------------------------------------------------------------------------|
A#|-------------------------------------------------------------------------|
F#|-------------------------------------------------------------------------|
C#|-5-5--7--4--4-4---7-7--7-2-2-2-0----0------------------------------------|
G#|-5-5--------------7-7---------------0------------------------------------|
C#|-5-5--------------7-7---------------0------------------------------------|






GUITAR 1 (Verse 2)

D#|-------------------------------------------------------------------------|
A#|-------------------------------------------------------------------------|
F#|-------------------------------------------------------------------------|
C#|-------------------------------------------------------------------------|
G#|-9--9--9--9--7--5--9--7---x2---------------------------------------------|
C#|-9--8--7--6--5--5--7--7--------------------------------------------------|


GUITAR 2 (Verse 2)

D#|-------------------------------------------------------------------------|
A#|---------10------------------10----------------10------------10----------|
F#|----11-----11----11----11------11---11----11------11---11--11---11---11--|
C#|-12----12-----12----11-----11-----11---10----10-----10---9---9-----9-----|
G#|-------------------------------------------------------------------------|
C#|-------------------------------------------------------------------------|

D#|-------------------------------------------------------------------------|
A#|-------------------------------------------------------------------------|
F#|---9---9-9---9---9---7---9----11---11-11---11---9---9-9---9--------------|
C#|-8---8-----8---8---8---8----9----9-------9----9---9-----9----------------|
G#|-------------------------------------------------------------------------|
C#|-------------------------------------------------------------------------|

Repeat (Same change on 3rd note 2nd string)

D#|-------------------------------------------------------------------------|
A#|---------10------------------10----------------12------------10----------|
F#|----11-----11----11----11------11---11----11------11---11--11---11---11--|
C#|-12----12-----12----11-----11-----11---10----10-----10---9---9-----9-----|
G#|-------------------------------------------------------------------------|
C#|-------------------------------------------------------------------------|

D#|-------------------------------------------------------------------------|
A#|-------------------------------------------------------------------------|
F#|---9---9-9---9---9---7---9----11---11-11---11---9---9-9---9--------------|
C#|-8---8-----8---8---8---8----9----9-------9----9---9-----9----------------|
G#|-------------------------------------------------------------------------|
C#|-------------------------------------------------------------------------|


GUITAR 1 (Pre-Chorus)

D#|-------------------------------------------------------------------------|
A#|-------------------------------------------------------------------------|
F#|-------------------------------------------------------------------------|
C#|-5-[5x-----]---7-[7x-----]-----------------------------------------------|
G#|-5-[5x--x14]---7-[7x--x14]---x4------------------------------------------|
C#|-5-[5x-----]---7-[7x-----]-----------------------------------------------|


GUITAR 2 (Pre-Chorus)

D#|-------------------------------------------------------------------------|
A#|-------------------------------------------------------------------------|
F#|-[---------11--------------]------[---------11-------------]-------------|
C#|-[---12-------12----12-----]x2----[---12-------12----12----]x2-----x4----|
G#|-[10----10-------10--------]------[12----12-------12-------]-------------|
C#|-------------------------------------------------------------------------|


GUITAR 1 (Chorus)
                                                *Leading up to the bridge...
D#|-------------------------------------------------------------------------|
A#|-------------------------------------------------------------------------|
F#|-------------------------------------------------------------------------|
C#|-[5-5----7-7-----9--7]------------------5-5---7-7---0-0-0-0-0--0---0---0-|
G#|-[5-5----7-7-----9--7]-x2--5-7-9-9-9-9--5-5---7-7--5-5-7-7-9--9--12--12--|
C#|-[5-5----7-7-----9--7]-----5-7-9-8-7-6--5-5---7-7------------------------|


GUITAR 2 (Chorus)

D#|-------------------------------------------------------------------------|
A#|-[---------------------------------3---2]--------------------------------|
F#|-[---------------------------------4---2]--------------------------------|
C#|-[5-5--7--4--4-4--7-7--7-2-2-2-4---4---x]--x2---5-5---7-7----------------|
G#|-[5-5-------------7-7--------------2---4]-------5-5---7-7---9-9-9-9------|
C#|-[5-5-------------7-7-------------------]-------5-5---7-7---9-8-7-6------|

                                     *Leading up to the bridge...
D#|-------------------------------------------------------------------------|
A#|-------------------------------------------------------------------------|
F#|-------------------------------------------------------------------------|
C#|-5-5--7--4--4-4---7-7--7-2-2-2-0--[---0---0---0---0---0---0---0---0------|
G#|-5-5--------------7-7-------------[-2---2---0---0------------------------|
C#|-5-5--------------7-7-------------[-----------------5---5---4---4--------|


GUITAR 1 (Bridge)

D#|-------------------------------------------------------------------------|
A#|-------------------------------------------------------------------------|
F#|-------------------------------------------------------------------------|
C#|-5---7---4---9--7--5---7---0----5---7---8--9--7--5---7---0---9-7-12-7----|
G#|-5---7---4---9--7--5---7---0----5---7---8--9--7--5---7---0---9-7-12-7----|
C#|-5---7---4---9--7--5---7---0----5---7---8--9--7--5---7---0---9-7-12-7----|


GUITAR 2 (Bridge)

D#|-------------------------------------------------------------------------|
A#|-------------------------------------------------------------------------|
F#|-7--9--6--11-9-7--9--7--14---7-9-11-14--6-7-14-11-7-9-11-14--11----------|
C#|---------------------0---0-----------------------------------12--9-7-12-7|
G#|-5--7--4--9--7-5--7--0---0---5-7-9--12--4-5-12-9--5-7-9--12--9---9-7-12-7|
C#|---------------------0---0-----------------------------------0---9-7-12-7|


GUITAR 1 (Chorus)

D#|-------------------------------------------------------------------------|
A#|-------------------------------------------------------------------------|
F#|-------------------------------------------------------------------------|
C#|-[5-5----7-7-----9--7]------------------5-5---7-7---0--------------------|
G#|-[5-5----7-7-----9--7]-x2--5-7-9-9-9-9--5-5---7-7---0--------------------|
C#|-[5-5----7-7-----9--7]-----5-7-9-8-7-6--5-5---7-7---0--------------------|


GUITAR 2 (Chorus)


D#|-------------------------------------------------------------------------|
A#|-----------3-2-----------------------------------3---2-------------------|
F#|-----------4-2-----------------------------------4---2-------------------|
C#|-5-5--7-7--4-x--5-5--7--4--4-4--7-7--7-2-2-2-4---4---x--5-5--7-7---------|
G#|-5-5--7-7--2-4--5-5-------------7-7--------------2---4--5-5--7-7--9-9-9-9|
C#|-5-5--7-7-------5-5-------------7-7---------------------5-5--7-7--9-8-7-6|

D#|-------------------------------------------------------------------------|
A#|-------------------------------------------------------------------------|
F#|-------------------------------------------------------------------------|
C#|-5-5--7--4--4-4---7-7--7-2-2-2-0----0------------------------------------|
G#|-5-5--------------7-7---------------0------------------------------------|
C#|-5-5--------------7-7---------------0------------------------------------|












************************************

| /   slide up
| \   slide down
| h   hammer-on
| p   pull-off
| ~   vibrato
| +   harmonic
| x   Mute note
| b   Bend
| pb  Pre-bend
| br  Bend release
| pbr Pre-bend release
| brb Bend release bend

************************************
Tap to rate this tab
 
# A B C D E F G H I J K L M N O P Q R S T U V W X Y Z