Song name
# A B C D E F G H I J K L M N O P Q R S T U V W X Y Z

Seahaven - Sleep Alone tab

-----------------------------------------------------------------------------
                             SLEEP ALONE - Seahaven
-----------------------------------------------------------------------------
This is one of their new songs from 2014, one of my favorites too.

Tuning: Drop D

Verse:
e|------------------------------|--|------|
B|------------------------------|--|------|
G|------------------------------|x2|------|
D|--4-4-4-4-4-4-4-4-0-0-0-0-2-2-|--|--2-0-|
A|-5-5-5-5-5-5-5-5-2-2-2-2-0-0--|--|-0-0--|
D|------------------------------|--|------|
  *1st time, leave out 1st 4 notes*

Break:
e|---------------------------------|--|----------------------------------|
B|---------------------------------|--|----------------------------------|
G|-v-----v-----v---v-----v-----v---|x3|----------------------------------|
D|-7-7-7-7-7-7-7-7-7-7-7-7-7-7-7-7-|--|-7-7-7-7-7-7-7-7-7-7-7-7-7-7-7-7--|
A|-5-5-5-5-5-5-5-5-7-7-7-7-7-7-7-7-|--|-0-0-0-0-0-0-0-0-0-0-0-0-0-0-0-0--|
D|---------------------------------|--|----------------------------------|
   pm. . . . . . . . . . . . . . .      pm. . . . . . . . . . . . 

Verse:
e|------------------------------|--|------|
B|------------------------------|--|------|
G|------------------------------|x4|------|
D|--4-4-4-4-4-4-4-4-0-0-0-0-2-0-|--|--2-0-|
A|-5-5-5-5-5-5-5-5-2-2-2-2-0-0--|--|-0-0--|
D|------------------------------|--|------|

Break:
e|---------------------------------|--|----------------------------------|
B|---------------------------------|--|----------------------------------|
G|-v-----v-----v---v-----v-----v---|x3|----------------------------------|
D|-7-7-7-7-7-7-7-7-7-7-7-7-7-7-7-7-|--|-7-7-7-7-7-7-7-7-7-7-7-7-7-7-7-7--|
A|-5-5-5-5-5-5-5-5-7-7-7-7-7-7-7-7-|--|-0-0-0-0-0-0-0-0-0-0-0-0-0-0-0-0--|
D|---------------------------------|--|----------------------------------|
   pm. . . . . . . . . . . . . . .      pm. . . . . . . . . . . . 

Bridge:
e|----------------------------------------------------|
B|----------------------------------------------------|
G|---0----------------------0-------------------------|x a ton
D|-----4----------------------4-----------------------|
A|-5----------------------5---------------------------|
D|-------5----------------------0---------------------|
 |                                                    |
e|----------------------------------------------------|
B|----------------------------------------------------|
G|-------(7)-------(12)----------(7)------------------|x a ton - 4
D|------------(7)----------------------(7)---(12)-----|
A|----------------------------------------------------|
D|----------------------------------------------------|

Outro:
e|------------------------------------------------------------------|
B|------------------------------------------------------------------|
G|-v-----v-----v---v-----v-----v---v-----v-----v---v-----v-----v----|
D|-7-7-7-7-7-7-7-7-7-7-7-7-7-7-7-7-4-4-4-4-4-4-4-4-2-2-2-2-2-2-2-2--|
A|-5-5-5-5-5-5-5-5-7-7-7-7-7-7-7-7-2-2-2-2-2-2-2-2-0-0-0-0-0-0-0-0--|
D|------------------------------------------------------------------|
   pm. . . . . . . . . . . . . . . . . . . . . . . . . . . . . . .
Tap to rate this tab
# A B C D E F G H I J K L M N O P Q R S T U V W X Y Z