Song name
# A B C D E F G H I J K L M N O P Q R S T U V W X Y Z

Seahaven - Wild West Selfishness tab

Standard Tuning


Guitar 1
[0:00]-[0:05]
|---------------------------------|
|---2-0-2-2-0-2-2-0-2-2-0-2-2-0---|
|--2-2-2-2-2-2-2-2-2-2-2-2-2-2-2--|
|---------------------------------|
|---------------------------------|
|---------------------------------|

The timing on this line is a little strange.
Guitar 1
[0:05]-[1:30]
|---------------------------------|
|--2-2-0-2-2-0-2-2-0-2-2-0-2-2-0--|
|---2-2-2-2-2-2-2-2-2-2-2-2-2-2-2-|
|---------------------------------|
|---------------------------------|
|---------------------------------|

Guitar 2
[0:05]-[1:30]
|----------------------------|
|-----2-----2-----2-----2----|
|---2---2-2---2-2---2-2---2--|
|--4-4-4-3-3-3-2-2-2-2-2-2---|
|----------------------------|
|----------------------------|

Guitar 2
[1:30]-[1:56]
|------------------------|--------------|
|--2~--2~-----2-----2----|-----2-----2--|
|--2~--2~---2---2-2---2--|---2---2-2----|
|--4~--3~--2-2-2-2-2-2---|--4-4-4-3-3---|
|------------------------|--------------|
|------------------------|--------------|
|                         ^   
|x4                       After 4th Time

Guitar 1
[1:30]-[1:56]
|-------------------------0----|--------------|
|----------------2-0-0--2---0--|---2-0-0-2-0--|
|---rest--------2-2-2----2-2---|--2-2-2-2-2---|
|------------------------------|--------------|
|------------------------------|--------------|
|------------------------------|--------------|
|                               ^
|x4                             After 4th Time


Guitar 1
[1:56]-[2:21]
|---------------------------------|
|--2-2-0-2-2-0-2-2-0-2-2-0-2-2-0--|
|---2-2-2-2-2-2-2-2-2-2-2-2-2-2-2-|
|---------------------------------|
|---------------------------------|
|---------------------------------|

Guitar 2
[1:56]-[2:21]
|----------------------------|
|-----2-----2-----2-----2----|
|---2---2-2---2-2---2-2---2--|
|--4-4-4-3-3-3-2-2-2-2-2-2---|
|----------------------------|
|----------------------------|

Guitar 2
[2:21]-[2:45]
|------------------------|
|--2~--2~----------------|
|--2~--2~----------------|
|--4~--3~----------------|
|------------------------|
|------------------------|
|                            
|x4                       

Guitar 1
[2:21]-[2:45]
|-------------------------0----|
|----------------2-0-0--2---0--|
|---rest--------2-2-2----2-2---|
|------------------------------|
|------------------------------|
|------------------------------|
|                               
|x4                             

Guitar 2
[2:45]-[End]
|---------------------|
|---------------------|
|---------------------|
|--4------3------2----|
|--4------3------0----|
|--2x6----1x6----0x12--|

Guitar 1
Bend down and back up to make 
it sound like a hammer-on-pull-off
[3:03]-[3:26]
|---------------|
|--10b----------|
|--------9------|
|------------7--|
|---------------|
|---------------|

Guitar 1
[3:26]-[End]
|-------------------|
|--2-----2-----2----|
|--2-----2-----2----|
|--4x6---3x6---2x6--|
|-------------------|
|-------------------|


Tap to rate this tab
 
# A B C D E F G H I J K L M N O P Q R S T U V W X Y Z