Song name
# A B C D E F G H I J K L M N O P Q R S T U V W X Y Z

Seahaven - Silhouette tab

Standard Tuning

Guitar 1
[0:00]-[0:47]
|----------------------------------------------------|
|------------------------------0-----------0---------|
|--------0---------0-------------0-----------0-------|
|----------0---------0--------------0-----------0----|
|----------------------------------------------------|
|--3--3------3--3-------/8--8--------8--8--------8\--|
|
|----------------------------------------------------|
|------------------------------0-----------0---------|
|--------0---------0-------------0-----------0-------|
|----------0---------0--------------0-----------0----|
|----------------------------------------------------|
|--3--3------3--3-------/8--8--------8--8--------8\--|
|
|------------------------------------------|----------------------|
|---------------First-Time-----------------|----Second-Time-------|
|-------0----------------------------------|-------0--------------|
|---------0---2/4\2-0---0-0-0-0---0-0-0-0--|---------0---2/4\2-0--|
|------------------------------------------|----------------------|
|--0--0-----2---------3---------3----------|--0--0-----2----------|
|
|x2

Guitar 1
Chorus
[0:47]-[1:08]
|----------------|--------------|
|------0---------|--------------|
|----0---0-------|------0-------|
|----------0-----|----0---0-----|
|----------------|--------------|
|--3-------------|--0-------2~--|
|                 ^
|x8               After The 8th Time

Guitar 2
Chorus
This line is very quiet,palm muted,
and best heard in the right speaker.
[0:47]-[1:08]
|---------------|
|---------------|
|------4-7---4--|
|--5-7----------|
|---------------|
|---------------|
pm . . . .   .

Guitar 1
[1:08]-[1:30]
|--------------------------------------|
|--------------------------------------|
|--------------------------------------|
|---4-5-5-4-4-5-5--9-10-10-10-9-7h9----|
|----------------------------------10--|
|--3-3-3-3-3-3-3-/8-8--8--8--8---------|
|
|--------------------------------------|
|--------------------------------------|
|--------------------------------------|
|---4-5-5-4-4-5-5--9-10-10-10-9-7h9----|
|----------------------------------10--|
|--3-3-3-3-3-3-3-/8-8--8--8--8---------|
|
|---------------------|
|---------------------|
|------0--------------|
|----0---0----4b4b4b--|
|---------------------|
|--0-------2----------|

Guitar 2
[1:08]-[1:30]
|----------------------------------------|
|--8p7--8p7----8p7-----------------------|
|-----7----7------7---9p7------9p7-------|
|----------------------------------------|
|----------------------------------------|
|----------------------------------------|
|
|-----------------------------------------------------------|
|--8p7--8p7----8p7------------------------------------------|
|-----7----7------7---9p7---9p7---9p7-----------------------|
|-------------------------------5-----10-9---9-7h9---5/7\5--|
|-----------------------------------------------------------|
|-----------------------------------------------------------|

Guitar 1
[1:30]-[1:51]
|----------------------------------------------------|
|------------------------------0-----------0---------|
|--------0---------0-------------0-----------0-------|
|----------0---------0--------------0-----------0----|
|----------------------------------------------------|
|--3--3------3--3-------/8--8--------8--8--------8\--|
|
|----------------------------------------------------|
|------------------------------0-----------0---------|
|--------0---------0-------------0-----------0-------|
|----------0---------0--------------0-----------0----|
|----------------------------------------------------|
|--3--3------3--3-------/8--8--------8--8--------8\--|
|
|----------------------|
|----------------------|
|-------0--------------|
|---------0---2/4\2-0--|
|----------------------|
|--0--0-----2----------|

Guitar 1
Chorus
[1:51]-[2:12]
|----------------|--------------|
|------0---------|--------------|
|----0---0-------|------0-------|
|----------0-----|----0---0-----|
|----------------|--------------|
|--3-------------|--0-------2~--|
|                 ^
|x8               After The 8th Time

Guitar 2
Chorus
This line is very quiet,palm muted,
and best heard in the right speaker.
[1:51]-[2:12]
|---------------|
|---------------|
|------4-7---4--|
|--5-7----------|
|---------------|
|---------------|
pm . . . .   .

Guitar 1
[2:12]-[2:34]
|--------------------------------------|
|--------------------------------------|
|--------------------------------------|
|---4-5-5-4-4-5-5--9-10-10-10-9-7h9----|
|----------------------------------10--|
|--3-3-3-3-3-3-3-/8-8--8--8--8---------|
|
|--------------------------------------|
|--------------------------------------|
|--------------------------------------|
|---4-5-5-4-4-5-5--9-10-10-10-9-7h9----|
|----------------------------------10--|
|--3-3-3-3-3-3-3-/8-8--8--8--8---------|
|
|--------------------------|
|--------------------------|
|------0------2-2-2-2-2/4--|
|----0---0----4-4-4-4-4/5--|
|--------------------------|
|--0-------2---------------|

Guitar 2
[2:12]-[2:34]
|----------------------------------------|
|--8p7--8p7----8p7-----------------------|
|-----7----7------7---9p7------9p7-------|
|----------------------------------------|
|----------------------------------------|
|----------------------------------------|
|
|-----------------------------------------------------------|
|--8p7--8p7----8p7------------------------------------------|
|-----7----7------7---9p7---9p7---9p7-----------------------|
|-------------------------------5-----10-9---9-7h9---5/7\5--|
|-----------------------------------------------------------|
|-----------------------------------------------------------|

Guitar 1
[2:34]-[3:17]
|---------------------------------------|
|---------------------------------------|
|-----4-4------4-4------4-4------4-4----|
|---5-----5--5-----5--5-----5--5-----5--|
|--------------------0-0-0-0--3-3-3-3---|
|--3-3-3-3--0-0-0-0---------------------|

Guitar 1
[3:17]-[3:32]
|----------------------------------------------------------------|
|----------------------------------------------------------------|
|-----4-4------4-4------4-4------4---4---4---4---4---4---4-------|
|---5-----5--5-----5--5-----5--5---5---5---5---5---5---5---5-----|
|--------------------0-0-0-0--3-3-3-3-3-3-3-3-3-3-3-3-3-3-3-3----|
|--3-3-3-3--0-0-0-0----------------------------------------------|

Guitar 2
[2:34]-[3:17]
|---------------------------------------|
|---3---3----3---3----3-5-3----3---3----|
|-----4---4----4---4--------4----4---4--|
|--5-5-5-5--5-5-5-5--5-5-5-5--5-5-5-5---|
|---------------------------------------|
|---------------------------------------|

Guitar 2
[3:17]-[3:32]
|---------------------------------------|
|---3---3----3---3----3---3----3---3----|
|-----4---4----4---4----4---4----4---4--|
|--5-5-5-5--5-5-5-5--5-5-5-5--5-5-5-5---|
|---------------------------------------|
|---------------------------------------|

Guitar 1
[3:32]-[4:13]
|----------------------------------------------------|
|------------------------------0-----------0---------|
|--------0---------0-------------0-----------0-------|
|----------0---------0--------------0-----------0----|
|----------------------------------------------------|
|--3--3------3--3-------/8--8--------8--8--------8\--|
|
|----------------------------------------------------|
|------------------------------0-----------0---------|
|--------0---------0-------------0-----------0-------|
|----------0---------0--------------0-----------0----|
|----------------------------------------------------|
|--3--3------3--3-------/8--8--------8--8--------8\--|
|
|x2
|
|-----------------|
|-----------------|
|-------0---------|
|---------0-------|
|------------0----|
|--0--0------2----|

Guitar 1
Chorus
[4:13]-[4:38]
|----------------|-------------------|
|------0---------|-------------------|
|----0---0-------|------0------------|
|----------0-----|----0---0----0~----|
|----------------|-------------2~----|
|--3-------------|--0-------2--3~----|
|                 ^
|x8               After The 8th Time

Guitar 2
Chorus
This line is very quiet,palm muted,
and best heard in the right speaker.
[4:13]-[4:38]
|---------------|
|---------------|
|------4-7---4--|
|--5-7----------|
|---------------|
|---------------|
pm . . . .   .
Tap to rate this tab
 
# A B C D E F G H I J K L M N O P Q R S T U V W X Y Z