Song name
# A B C D E F G H I J K L M N O P Q R S T U V W X Y Z

Seahaven - Silhouette Latin Skin tab

-------------------------------------------------------------------------------
			     SILHOUETTE (LATIN SKIN) - Seahaven
-------------------------------------------------------------------------------
Tabbed by: coltoncarr
E-mail: coltonthomascarr@yahoo.com

Tuning: DADGBe

e|---------------------------------------------------------------------------|
B|-----------------------------0------------0--------------------------------|
G|-----0-----------0-------------0------------0------------------------------|
D|-0-----0-(0)-0-----0-------------(0)---------------------------------------|
A|---------------------------------------------------------------------------|
D|-5-5---------5-5------5/10-10--------10-10-----10\5------------------------|

e|---------------------------------------------------------------------------|
B|-----------------------------0------------0--------------------------------|
G|-----0-----------0-------------0------------0------------------------------|
D|-0-----0-(0)-0-----0-------------(0)---------------------------------------|
A|---------------------------------------------------------------------------|
D|-5-5---------5-5------5/10-10--------10-10-----10\2------------------------|

e|---------------------------------------------------------------------------|
B|---------------------------------------------------------------------------|
G|-----0---------------------------------------------------------------------|
D|-------0---0----2/4\2p0-----0---0---0---0---0---0---0---0------------------|
A|---------------------------------------------------------------------------|
D|-2-2-----2---0------------2---2-------2---2---2-------2--------------------|


************************************

| /   slide up
| \   slide down
| h   hammer-on
| p   pull-off
| ~   vibrato
| +   harmonic
| x   Mute note
| b   Bend
| pb  Pre-bend
| br  Bend release
| pbr Pre-bend release
| brb Bend release bend

************************************
Tap to rate this tab
# A B C D E F G H I J K L M N O P Q R S T U V W X Y Z