Song name
# A B C D E F G H I J K L M N O P Q R S T U V W X Y Z

Seal - Loves Divine tab

                      rainstorm                       over  me               
      A                     E                         F#m                      
E||---9-----9------------|--9---------9------------|--7-----9------------9--|
B||--10----10------------|--9---------9------------|--7----10-----------10--|
G||---9-----9------------|--9---------9------------|--9-----------------11--|
D||----------------------|-------------------------|------------------------|
A||----------------------|-------------------------|------------------------|
E||----------------------|-------------------------|------------------------|


                                                And      found                
--7-----9---------9-------|---9-------9---------9---9--|--9------7---------9--|
--7----10-------------10--|--10------10--------10--10--|--9------7--------10--|
--9----11----11-----------|---------------------9---9--|--9------9---------9--|
--------------------------|----------------------------|----------------------|
--------------------------|----------------------------|----------------------|
--------------------------|----------------------------|----------------------|


 brake                                                
---9-----9------------9--|--7-----9----------9-------|
--10----10-----------10--|--7----10-------------10---|
---9----11-----------11--|--9----11------11----------|
-------------------------|---------------------------|
-------------------------|---------------------------|
-------------------------|---------------------------|


   lost              All of       my                           
---9-------9---------9------9--|--9----9------------|
--10------10--------10-----10--|--9----9------------|
--------------------11------9--|--9----9------------|
-------------------------------|--------------------|
-------------------------------|--------------------|
-------------------------------|--------------------|


  Believe                                                           
--9------------------9--------|---------9--------9-------9------|
----------9---------10--------|------------10---10------10------|
-------------9------11--------|-----11--------------------------|
---------------9--------------|---------------------------------|
------------------------------|---------------------------------|
------------------------------|---------------------------------|


   And             my                                                  
---9-----9----9----9----|----------------------|----------------------|
--10----10----9----9----|-------2--------------|--2-------------------|
---9-----9----9----9----|----------------------|----------2--------2--|
--------------9----9----|----------4-----------|-------4--------------|
------------------------|----------------------|----------------------|
------------------------|----------------------|----------------------|

...
   A                         E                      F#m
   
---9-----9-------9---9----|--9----9------9--9----|---9-----9---------9----|
--10----10------10--10----|--9----9------9--9----|--10----10--------10----|
---9-----9-------9---9----|--9----9------9--9----|--11----11--------11----|
--------------------------|----------------------|------------------------|
--------------------------|----------------------|------------------------|
--------------------------|----------------------|------------------------|

  
--7-----9----------9------|---9-----9-------9---9----|--9----9------9--9----|
--7----10-------------10--|--10----10------10--10----|--9----9------9--9----|
--9----11------11---------|-----------------9---9----|--9----9------9--9----|
--------------------------|--------------------------|----------------------|
--------------------------|--------------------------|----------------------|
--------------------------|--------------------------|----------------------|
Tap to rate this tab
# A B C D E F G H I J K L M N O P Q R S T U V W X Y Z