Song name
# A B C D E F G H I J K L M N O P Q R S T U V W X Y Z

Seal - Kiss From A Rose tab

Tabbed by: Jorge A. Lavaire
Email: jorge_lavaire@hotmail.com


 Intro:
     Part 1
 (E)   Cmaj7        D        E           E
e|-0-2|-3---3/5-3-|-2---0---|-0-----0---|-0-----0-|
B|----|---0-------|-------3-|-----0---3-|-----0---|
G|----|-----------|---2-----|---1-------|---1-----|
D|----|-----------|-0-------|-----------|---------|
A|----|-3---------|---------|-----------|---------|
E|----|-----------|---------|-0---------|-0-------|

     Part 2
 (E)   Cmaj7        D        E           E
e|-0-2|-3---3/5-3-|-2-----2-|-0-----0---|------0-|
B|----|---0-------|-----3---|-----0---3-|-----0--|
G|----|-----------|---2-----|---1-------|----1---|
D|----|-----------|-0-------|-----------|---2----|
A|----|-3---------|---------|-----------|--2-----|
E|----|-----------|---------|-0---------|-0------|

 Verses:
There used to be a greying tower alone on the sea
  E               Cmaj7       D         E           E
e|-0-------0-0-2-|-3---3/5-3-|-2---0---|-0-----0---|-0-----0-|
B|-------0-------|---0-------|-------3-|-----0---3-|-----0---|
G|---1-1---------|-----------|---2-----|---1-------|---1-----|
D|---------------|-----------|-0-------|-----------|---------|
A|---------------|-3---------|---------|-----------|---------|
E|-0-------------|-----------|---------|-0---------|-0-------|

You became the light on the dark side of me
              E        Cmaj7       D         E           E
e|-0-10/9-3-|-0-0-0-2-|-3---3/5-3-|-2---0---|-0-----0---|-0------0-|
B|----------|---------|---0-------|-------3-|-----0---3-|------0---|
G|----------|---------|-----------|---2-----|---1-------|----1-----|
D|----------|---------|-----------|-0-------|-----------|----------|
A|----------|---------|-3---------|---------|-----------|----------|
E|----------|-0-------|-----------|---------|-0---------|-0--------|

Love remained a drug that's the high and not the pill
              E        Cmaj7       D         E           E
e|-0-10/9-3-|-0-0-0-2-|-3---3/5-3-|-2-----2-|-0-----0---|------0--|
B|----------|---------|---0-------|-----3---|-----0---3-|-----0---|
G|----------|---------|-----------|---2-----|---1-------|----1----|
D|----------|---------|-----------|-0-------|-----------|---2-----|
A|----------|---------|-3---------|---------|-----------|--2------|
E|----------|-0-------|-----------|---------|-0---------|-0-------|

But did you know that when it snows
  E       Em
e|-0-----|-0-----|
B|---3---|---0---|
G|-----1-|-----0-|
D|-------|-------|
A|-------|-------|
E|-0-----|-0-----|

My eyes become large and the light that you shine can be seen?
  (E)   Cmaj7   D       Cmaj7   D       E
e|-0-2-|-3-3/5-|-2---2-|-3-3/5-|-2---2-|------0-|
B|-----|-------|---3---|-------|---3---|-----0--|
G|-----|-------|-------|-------|-------|----1---|
D|-----|-------|-0-----|-------|-0-----|---2----|
A|-----|-3-----|-------|-3-----|-------|--2-----|
E|-----|-------|-------|-------|-------|-0------|

 Chorus:
Baby, I compare you to a kiss from a rose on the grey
  E                    Cmaj7   D       E
e|------0-3-0-3-0-3-0-|-3-3-3-|-2-2-2-|------0-|
B|-----0--------------|-------|-------|-----0--|
G|----1---------------|-------|-------|----2---|
D|---2----------------|-------|-0-----|---2----|
A|--2-----------------|-3-----|-------|--1-----|
E|-0------0-----------|-------|-------|-0------|

Ooh, the more I get of you, the stranger it feels, yeah
  E                    Cmaj7   D       E
e|-3-0-3-0-3-0-|-3-3-3-|-2-2-2-|------0-|
B|-------------|-------|-------|-----0--|
G|-------------|-------|-------|----2---|
D|-------------|-------|-0-----|---2----|
A|-------------|-3-----|-------|--1-----|
E|-0-----------|-------|-------|-0------|

Now that your rose is in bloom
A light hits the gloom on the grey
  (E)   Cmaj7   D       Cmaj7   D       E
e|-0-2-|-3-3/5-|-2---2-|-3-3/5-|-2---2-|------0-|
B|-----|-------|---3---|-------|---3---|-----0--|
G|-----|-------|-------|-------|-------|----1---|
D|-----|-------|-0-----|-------|-0-----|---2----|
A|-----|-3-----|-------|-3-----|-------|--2-----|
E|-----|-------|-------|-------|-------|-0------|

Thanks
Tap to rate this tab
# A B C D E F G H I J K L M N O P Q R S T U V W X Y Z