Song name
# A B C D E F G H I J K L M N O P Q R S T U V W X Y Z

Sealakes - Not Without You tab

Band: sealakes
Song: Not Without You
Album: Every Heart EP

Tuning: Drop D

Just listen to the the song and you should be able to figure out when/where these go.

(Main riff/chorus)
|----------------------|
|----------------------|
|----------------------|
|----------------------|
|-------3-2-0----------|
|-/77777------0000-5555|

(Other 1/2 of Chorus)
|-----------------------------------|
|-----------------------------------|
|999---9-777---7-555---5--4b5-4b5---|
|---777-7---555-5---333-3----3---3--|
|-----------------------------------|
|-----------------------------------|

(Played muted/only light distortion)
|--------------------------------|
|--------------------------------|
|--------------------------------|
|--------------------------------|
|3333333-33-333333-77777-8-55555-|
|7777777-55-777777-33333-3-00000-|

|------------------------|
|------------------------|
|------------------------|
|3--3--55555555----------|
|3--3--55555555--66------|
|3--3--55555555-7(7-)7b8-|

(Played muted/only light distortion)
|-------------------------------------|
|-------------------55555555----------|
|-------------------------------------|
|33333333-77777777--77777777-77777777-|
|33333333-55555555--77777777-55555555-|
|33333333-33333333--77777777-33333333-|


Tabbed by: Edward Stevens (http://youreawomanimamachine.tumblr.com)

(Please bare in mind that this is the first song I've tabbed however, 
I'm pretty certain that there are no mistakes. If there are, feel free 
to comment and I'll make any necessary changes.)





Tap to rate this tab
 
# A B C D E F G H I J K L M N O P Q R S T U V W X Y Z