Seals And Crofts - Summer Breeze tab

Intro
E |-----------------------|
B |-----------------------|
G |-----7-4---------------|
D |---5------7--5-4-------|
A |-7--------------7-5-7--|
E |-----------------------|
  

Riff 1
E |-----10-7-----------------|
B |---8-------10--8-7--------|
G |-9----------------9-7-9---|
D |--------------------------|
A |--------------------------|
E |--------------------------|


Riff 2
E |-7-8--10-8-7------|
B |--------------8---|
G |------------------|
D |------------------|
A |------------------|
E |------------------|


(Intro played twice)

Em                 G
  See the curtains hanging in the window
D                   A           E    Am7
  In the evening on a Friday night
Em                 G
  A little light a shinin' through the window
D                   A                E
  Lets me know everything is all right


CHORUS:

Am7               Bm7
  Summer breeze, makes me feel fine
Am7                                  G    (Riff 2)
  Blowing through the jasmine in my mind
Am7               Bm7
  Summer breeze, makes me feel fine
Am7                                  G    (Riff 2)
  Blowing through the jasmine in my mind


(Riff 1 played 2 times)


Em              G
  See the paper laying on the sidewalk
D                         A             E    Am7
  A little music from the house next door
Em              G
  So I walk on up to the doorstep
D                         A             E
  Through the screen and across the floor

(Chorus)

(Intro played 2 times while singing below)                  
           
  -Sweet days of summer, the jasmines in bloom

  -July is dressed up and playing her tune.


               D7sus             Esus7
  And I come home from a hard days work
             D7sus                   B7
  And you're waiting there not a care in the world


Em               G
  See the smile waitin in the kitchen
D                  A              E    Am7
  Food cooking and plates for two
Em                   G
  Feel the arms that reach out to hold me
D                         A              E
  In the evening when the day is through

(Repeat Chorus)

(Riff 1 played 4 times, getting quieter)

Tap to rate this tab
 
# A B C D E F G H I J K L M N O P Q R S T U V W X Y Z