Song name
# A B C D E F G H I J K L M N O P Q R S T U V W X Y Z

Seals And Crofts - Blessed Is The Spot tab

Help us improve GuitareTab! Take a short survey!
Hi, I'm a Bahá’í who happens to be a guitarist. I'm from the Hurstville community. This 
isn't exactly the one you hear on the CD but it’s an easier version. If you want more 
from me, email ttom3620_12@hotmail.com

CHORDS:

  D  Dmaj7  D7 G G(BAR) Gm  C Am A7 Dsus A7#
e|2--2------2--3-3------3---0-0--0--3----0----|
B|3--2------1--3-3------3---1-1--2--3----3----|
G|2--2------2--0-4------3---0-2--0--2----0----|
D|0--0------0--0-5------5---2-2--2--0----3----|
A|-------------2-5------5---3-----------------|
E|-------------3-3------3---------------------|

INTRO/VERSE:

  D                                Dmaj7
e|-------2-----2-------0h2-----2---------2-----2-------0h2-----2----|
B|-----3---3---------3-----3-----3-----2---2---------2-----2-----2--|
G|---2-------2-----2---------2-------2-------2-----2---------2------|
D|-0-------------0-----------------0-------------0------------------|
A|------------------------------------------------------------------|
E|------------------------------------------------------------------|

  D7                              G
e|-------2-----2------0h2-----2---------3-----3-------3-----3-------|
B|-----1---1--------1-----1-----1-------3-----------3---3-----3-----|
G|---2-------2----2---------2---------0---0-------0-------0---------|
D|-0------------0-------------------0-------0---0-------------------|
A|------------------------------------------------------------------|
E|--------------------------------3---------------------------------|

  G(BAR)                         Gm
e|-------3----------------------------------------------------------|
B|---------3---3-----3-----3-----------3-----3-------3-----3--------|
G|-----4-------4-----4-4-----4-------3---3---------3---3------------|
D|---5-------5-----5-----------5---5-------5-----5-------5----------|
A|-5-------------5-------5-------5-------------5--------------------|
E|------------------------------------------------------------------|

  D             Dsus(STRUM ONCE) D(STRUM ONCE)
e|------2-----2-3~---------------2~-------------------------------|-|
B|----3---3-----3~---------------3~-------------------------------|.|
G|--2-------2---2~---------------2~-------------------------------|-|
D|0-------------0~---------------0~-------------------------------|.|
A|----------------------------------------------------------------|-|
E|----------------------------------------------------------------|-|

BRIDGE:

      C            Am          D        Dsus  D
We’re mentioned of God, hath been made


       C           A7 (slide to A7# then back to A7)  N.C     Play INTRO/VERSE
and His praise,                                       glo-ri-fied

END
Related for Blessed Is The Spot tab