Song name
# A B C D E F G H I J K L M N O P Q R S T U V W X Y Z

Sean Costello - Have You No Shame tab

====================================================================================

SEAN COSTELLO - "HAVE YOU NO SHAME"

Album:          "WE CAN GET TOGETHER" (2008)
Written by       Donnie McCormick

====================================================================================

Tabbed by Ben Chen 06/28/08

Notation:

      h - hammer on
      p - pull off
      b - bend string up
      r - release bend
      / - slide up
      \ - slide down
      ~ - vibrato
      x - muted
     ( )- ghost and soft notes


RIP Sean.
http://www.seancostello.com

====================================================================================


I saw you last night under
those parking lot lights all wrapped up
in somebody else's arms

E----------0----------------0------------------------------------------2------------|
B----------3/5-3------------3/5-3--------10------3---2-----------------2------------|
G----------4/6-4------------4/6-4----6-7-9-------4-----4---------------2------------|
D-----------------------------------/7-9-9h11----x-------3----2h3-4-----------------|
A------0----------------0---------------(0)------4---------4-------4----------------|
E--0-2--------------0-2---------------------------------------------2---------------|


From the shadows I could see
and the way it looked to me
you had a hard time
resisting all his charms

E-----------------(9)---12-9----------9------0---------------2----------------------|
B------------------10---10---12-10-12-----3--3--2-2----------2----------------------|
G--1---2---4---6-7-9----------------------4-----4-4----------2-----------2----------|
D--2---4---6--/7-9-9h11-------------------x---------2h3-4--------2h4-4-4--4h2-------|
A-----------------(0)---------------------4--------------4-------2h4-4-4----(4)-----|
E----------------------------------------------------------2------------------------|


Have you no shame?
Have you no shame?

E----(0)-(0)------0-----0-0--2-----2-2-0-2-5-2-0-------0------------5---------------|
B---(0)-(0)---3/5-5-3/5-5-5\-3---0-2-2-0-2-----------0----------2----2--------------|
G--1---2------4/6---4/6---6\-4-------------------0h1------------2-----2-------------|
D--2---4---------------------4----------------------------------2------2------------|
A----------------------------2----------------------------------0-------------------|
E-----------------------------------------------------------------------------------|


Have you no shame?
Have you no shame?

E--------------0-0-------0-----0-0--2---2-2-0h2-5--2--2----------0------------------|
B--2------2---2--2---3/5-5-3/5-5-5\-3---2-------(2)-(2)5---------0------------------|
G--4-4----4--3---3---4/6---4/6---6\-4-------------------4-2\1----1------------------|
D--3-3----3-4----4------------------4------------------------2----------------------|
A--4-4-----------4------------------2-------------------------2---------------------|
E--------------------------------------------------------------0--------------------|


I heard it from a friend of mine
but I guess I knew it all the time
that your love

E----------0-----------------0------------9----12\----------------------------------|
B----------3/5-3-------------3/5-3--------10---10\3---3---2-------------------------|
G----------4/6-4-------------4/6-4----6-7-9--------4---4----4-----------------------|
D------------------------------------/7-9-9h11------3---3-----3----2h3-4------------|
A------0----------------0----------------(0)---------4---4------4-------4-----------|
E--0-2--------------0-2--------------------------------------------------2----------|


for me never really did amount to very much
Will the weather never be the same?
You can't see my teardrops for the rain
and my heart hurts

E-----------------------------0---0---0-----9----12-12--------0---------------------|
B----------------------------0---0----------10---10-10---3-3----2-2-----------------|
G---------------------------1---2----4--6-7-9------------4-4----4-4-----------------|
D--2h4-4-4-2h4-4-4-2h4-4-4-2---4----6--/7-9-9h11----------------------2h4-4-4-------|
A--2h4-4-4-2h4-4-4-2h4-4-4-----------------(0)------------------------2h4-4-4-------|
E-----------------------------------------------------------------------------------|


My heart hurts to the touch
Have you no shame?

E-----------------------------0---0-----0-----0----2---10-9-10-9-10-9-7-------------|
B----------------------------0---0--3/5-5-3/5-5-5\-3---7--7-7--7-7--7-7-10-7h10p7---|
G---------------------------1---2---4/6---4/6---6\-4-----------------------------9--|
D--2h4-4-4-2h4-4-4-2h4-4-4-2---4-------------------4--------------------------------|
A--2h4-4-4-2h4-4-4-2h4-4-4-------------------------2--------------------------------|
E-----------------------------------------------------------------------------------|


Have you no shame?
Have you no shame?

E----------------12----5---5-----------------0--------0-----0-0--2--2p0-5p0-2p0-----|
B---------------9------2----2---2---2----2----2---3/5-5-3/5-5-5\-3--0-------0-------|
G--7h9p7-------9-------2-----2--4----4---4-----3--4/6---4/6---6\-4------------------|
D-------9-----9--------2------2-3-----3--3------4----------------4------------------|
A---------9/11---------0--------4------4-4-----------------------2------------------|
E-----------------------------------------------------------------------------------|

Have you no shame?

E--5p0-2p0----------0------------0----------------0---------------------------12----|
B------0------------0------------3/5-3------------3/5-3-----------10-12----10-------|
G----------1h2p1----1------------4/6-4------------4/6-4-------/11-------11----------|
D---------------2-------------------------------------------------------------------|
A----------------2-----------0----------------0-------------------------------------|
E-----------------0------0-2--------------0-2---------------------------------------|

E--12----12----------12---------------------------------------5-7-7b9r7p5-----------|
B--12b14-12b14~------12b14--12p10-13b15~--10-12b14-12---4-5-6-------------7\--------|
G-----------------------------------------------------------------------------------|
D-----------------------------------------------------------------------------------|
A-----------------------------------------------------------------------------------|
E-----------------------------------------------------------------------------------|

E--0-2-2-5-2---2---4-2-------------0----4-5-----5-4----------(0)--------------------|
B--0-2-2-2-2-5-2-5-----5-2-------0-0--5-----5-7--------------(0)-5/7--5h7--5-5\3~---|
G--------------------------4-2\1---1----------------7-6-7b9~--------6----6----------|
D-----------------------------------------------------------------------------------|
A-----------------------------------------------------------------------------------|
E-----------------------------------------------------------------------------------|

E---------------4----9-12-9-7-9-7-5-7-5-2-5-2-4-2---------0--12----12------12-------|
B--3~3~-3-3-5/6-6~---9----9-7---7-5---5-2---2-2-2-5----------12b14---12b14----------|
G---------------------------------------------------2\1-----------------------------|
D------------------------------------------------------2-2--------------------------|
A-------------------------------------------------------2---------------------------|
E-----------------------------------------------------------------------------------|

E--12----12-----------------14-17----14---------------------------------------------|
B--14r12-12br~--12-12/14-17-------17----14-17-14-13\12-10-12-12br-10-12-10----------|
G--------------------------------------------------------------------------11-9-9~--|
D-----------------------------------------------------------------------------------|
A-----------------------------------------------------------------------------------|
E-----------------------------------------------------------------------------------|

E--------12-12----12-12-12-12----12-----9-----9--------------------------------------|
B--12b14----12b14-12-10-12-12b14-12b14~-13b15-13b15~-12b14-12b14-12b14rp11~11~11~11~-|
G---------------------------------------x--------------------------------------------|
D---------------------------------------x--------------------------------------------|
A------------------------------------------------------------------------------------|
E------------------------------------------------------------------------------------|

E--------12------12--------9h10-9h10-9h10-9-7------------------------12--------------|
B--12b14---12b14---14r12~--7----7----7-------10-7h10p7--------------9----------------|
G-----------------------------------------------------9-7h9p7------9----4b6r4b6r4b6r-|
D------------------------------------------------------------9----9------------------|
A-------------------------------------------------------------9/11-------------------|
E------------------------------------------------------------------------------------|


I saw you last night, I saw you
out there underneath the parking lot lights all wrapped up
in somebody else's arms

E---------------------------------5-7-9---12\-------------------------2----2--------|
B------3/5-3-----------3/5-3----------10--10----3-3-----2-2-----------------2-------|
G--2~--4/6-4-----------4/6-4---/6---7-9---------4-4-----4-4------------------2------|
D-------------------------------------11----------------3-3---2h3-4-------3---3-----|
A------------------0-----------------(0)------4-------4------------4----------------|
E--------------0-2--------------------------------------------------2---------------|


In the silence between the thunder
and when it gets quiet before the storm
at the edge of this love hangover

E-----0---0---0-----9---12-12/14-14-12-9---------------0----------------------------|
B----0---0---0------10-----------------10-12-------3-3----2--2----------------1-----|
G---1---2---4---6-7-9------------------------9\----4-4----4----4--------------1-----|
D--2---4---6---7----9h11----------------------------------3------3----2h3-4---3-----|
A------------------(0)----------------------------4----(4)-(4)-----4-------4--------|
E---------------------------------------------------------------------------2-------|


why do I keep hangin' on?
Have you no shame?

                   (fast strum)
E-------------------0-0-0-0-0-0----0-----0-----2---10-9-10-9-7----------------------|
B-------------------------------3/5-5-3/5-5-5\-3---7--7-7--7-7-10-7-----------------|
G------------------1-1-1-2-2-2--4/6---4/6---6\-4--------------------9-7h9p7---------|
D--2h4-4-4-2h4-4-4-2-----4---------------------4---------------------------9-7h9p7--|
A--2h4-4-4-2h4-4-4-----------------------------2----------------------------------9-|
E-----------------------------------------------------------------------------------|


Have you no shame?
Have you no shame?

E---------12----5---5-----------------0--------------------2---2-2-0h2-5---2-2------|
B--------9------2----2---2---2----2----2----3/5-5-3/5-5-5\-3---2---0h2---2-2-2-5----|
G-------9-------2-----2--4----4---3-----3---4/6-6-4/6-6-6\-4---------------------4--|
D------9--------2------2-3-----3--4------4-----------------4------------------------|
A--9/11---------0--------4------4-4------------------------2------------------------|
E-----------------------------------------------------------------------------------|


Have you no shame?

E------------------------0---------------0---------------0--------------------5-----|
B------------------------3/5-3-----------3/5-3-----------3/5-3--------------2-------|
G--2/1-2p1---------------4/6-4-----------4/6-4-----------4/6-4------------2---------|
D----------2------------------------------------------------------------2-----------|
A------------2--------0---------------0---------------0---------------0-------------|
E-----------------0-2-------------0-2-------------0-2-------------0-2---------------|
Tap to rate this tab
# A B C D E F G H I J K L M N O P Q R S T U V W X Y Z