Song name
# A B C D E F G H I J K L M N O P Q R S T U V W X Y Z

Sean Hayes - A Thousand Tiny Pieces tab

There are a lot of little nuances throughout the entire song, especially in the G, B, 
higher E strings and the Bridge. Just listen to the recording or do your 
own embellishment. Seriously, tell me if this is correct or not.


INTRO

E-----------------------------------------------------------------------------------0--------0---|
B----------0--------1----------1-----3---1---0-------------------0---------1--------3--------5---|
G----------0--------0----------2---------------------0h2---------0---------0---------------------|
D-----------------------------------------------0h2----------------------------------------------|
A----------------3---------0------------------------------------------3---------0---------3------|
E-----3------------------------------------------------------3-----------------------------------|



VERSE 1

E----------------------------------------------------------------|
B--------------0----------1------------1-------------1-----------|
G--------------0----------0------------2-------------0-----------|
D----------------------------------------------------------------|
A--------------------3-----------0-------------3-----------------|
E--------3-------------------------------------------------------|

Verse 1 lyrics

Just play this one out until it explodes, into a thousand tiny
Pieces, what's your story, universe, you are melody and
Numbers, you are shapes, and you're rhythms, there are signs that we can learn
To place over the heavens, to predict how long the burn
How long will I last, can I turn up the heat
What star am I circling, what's circling me



Verse 2

E-------------------------------------------------------------------------------|
B--------0-------1----------1----------1----------------------------------------|
G--------0-------0----------2----------0----------------------------------------|
D-------------------------------------------------------------------------------|
A----------------------0----------3---------------------------------------------|
E----0-------3------------------------------------------------------------------|

Verse 2 lyrics 

Now my ebb and my flow, and my lack of control
Tuning on, turning off, saying yes, playing no



Fill

E--------------------------0------------------------------------------------|
B--------------------------1------------------------------------------------|
G--------------------------0--------------------------------0--------2p0----|
D----------------0----------------------------0---------2-------------------|
A----------2----------3------------------2---------3-------------0----------|
E-----3-----------------------------3---------------------------------------|



Bridge-

Guitar part same as Verse 1 
Bridge lyrics:  "Things keep changin'"



Solo-  (Guitar 1)  
 
E---------------------------------------------------------------------------|
B-----------0-1-----0---------------------------0---------------------------|
G-------0-2-----------0-2-----2p0-----------0-2---2-0-----------------------|
D---0h2---------------------------0-----0-2-----------2---------------------|
A---------------------------------------------------------------------------|
E-------------------------------------------------------3-------------------|



Song Progression:
Intro
Verse 1
Verse 2
Fill twice
Bridge   ]---  Guitar 2 plays Verse 1 a total of five times throughout
Solo     ]---  the course of the Bridge/Solo section
Verse 1
Verse 2
Fill twice
end on G


"What's your story, universe..."
by Ross Varin
Tap to rate this tab
 
# A B C D E F G H I J K L M N O P Q R S T U V W X Y Z