Guitaretab - guitar tabs
Song name
# A B C D E F G H I J K L M N O P Q R S T U V W X Y Z

Sean Hayes - Time tab

-------------------------------------------------------------------------------
			     SONG NAME - Band Name
-------------------------------------------------------------------------------
Tabbed by: Ivan D
Email: ivndrs@gmail.com

Tuning: EADGBE (Standard)

Chords:
Bbm
Fm
C7

An interesting song from a talented artist. I couldn't find a tab for this so I stopped 
lazy and figured it out for myself.
Sean Hayes uses a simple progression here, but the rhythm is tricky, along with the palm muting.

Rhythm (also first measure of intro): 12/8 time, the "1,2,3" is the beat.


  1      2      3      1      2      3      1      2      3      1      2      3
[ Tab from: http://www.guitaretab.com/s/sean-hayes/191693.html ]
  Fm                   Bbm                  C7                   Bbm
e|-----------1------1-------------1------1----------------------------------1------1----|
B|-----------1------1-------------2------2------------1-------1-------------2------2----|
G|-----------1------1-------------3------3------------3-------3-------------3------3----|
D|----------------------------------------------------2-------2-------------------------|
A|---------------------1-----(1)----------------------3-------3--1-----(1)--------------|
E|1-----(1)---------------------------------3-----(3)-----------------------------------|

Intro: Fm Bbm C7 Bbm Fm Bbm Fm C7 Fm Fm

Then a little chromatic walk into the Bbm:

A|3--2--....


Bbm
----Come with me a while
Fm
----Sit with me a while
C7         Bbm     Fm   Bbm
All that I have is time
Bbm
----Drink with me a while
Fm
----Sip tea a while
C7         Bbm     Fm  C7 Fm Fm
All that I have is time

Bbm                Fm
We could find our--selves a bottle
Bbm                         Fm
And wander the streets like rogues
Bbm                   Fm
Smile and wave at all those passing by
C7     Bbm       Fm	Bbm C7 Fm
Off to meet their homes....
Related for Time tab
×
Time