Song name
# A B C D E F G H I J K L M N O P Q R S T U V W X Y Z

Sean Hayes - Powerful Stuff tab




Intro                     -  Main Chorus -
--2-0---------------------------2--2---2-2----4-4---2-2---------------|
-----2p0------------------------2--2---2-2----4-4---2-2----7----------|
--------1---9x-----9-9--99------2--2---2-2----4-4---2-2--9-9----------|
------------9x-----9-9--99------4--4---4-4----6-6---4-4--9-9----------|
------------7x-----7-7--77------4--4---4-4----6-6---4-4--7-7----------|
0---------0x------0----0-----2--2--2-2-2-2--4-4-4-2-2-2-0-------------|
Repeat




This Is Powerful
Powerful
Powerful


-------2-----4--
-------2-----4--
-9-----2-----4--
-9-----4-----6--
-7-----4-----6--
0--0-2-2-2s4-4-- X3
(on the third time around play whats underneath instead of the -4-
                                                               -4-
                                                               -4-
                                                               -6-
                                                               -6-
                                                               -4-
--5-5-5----7-7-7----------------|
--5-5-5----5-5-5----------------|
--------------------------------|
--------------------------------|
--------------------------------|
--------------------------------|


(Solo is the same as the intro)


(Ending Is same as chorus,rhythm may be a little different though, you should be 
able to figure it out..)
Tap to rate this tab
 
# A B C D E F G H I J K L M N O P Q R S T U V W X Y Z