Song name
# A B C D E F G H I J K L M N O P Q R S T U V W X Y Z

Sean Hayes - 3 Am tab

-------------------------------------------------------------------------------
			     3 AM - Sean Hayes
-------------------------------------------------------------------------------


Tuning:C# standard [C# F# B E G# C#] You could play in standard, but it wouldn't sound 
like the recording.

This song is played with an alternating bass line. If you've never used that technique 
before, this song will be hard to get right. However, once
you learn that, it's pretty simple. Keep in mind, Sean Hayes throws some variations into 
the melody throughout the song, especially during the second solo.

Repeats throughout (with some variations)
C#|---------------------------------------------------------------------------|
G#|----3--5----3-5----3--5----3------3--5----3-5-----3--5----3----------------|
E |-4-------4------4-------4----4-4--------4------4--------4---4--------------|
B |---2--2---2---2---2--2---2-------2--2----2--2----2--2----2-----------------|
F#|-------------------------------0--0---0---0----0--0----0--0----------------|
C#|-0--0---0---0---0--0---0---------------------------------------------------|


First solo
C#|------------------------------------------------12\10----------------------|
G#|---12~----12-------------------------15-15---15-------10-------------------|
E |-11-----11-----11-14-11-9--------9---11-11---11---------11p9-11------------|
B |--------------------------12-9-12---------------------------------------12-|
F#|---------------------------------------------------------------12--12h14---|
C#|---------------------------------------------------------------------------|


Second solo
C#|---------------------------------------------------------------------------|
G#|-15-12-15--12--------------------------------------------------------------|
E |-------------14\11-9-9-11----9------7-9\--------------------7\-----7-7--9p7|
B |--------------------------7h9----7h9-------7-9-7-9\---7-9-7-----7h9---9----|
F#|-----------------------------------------/9---------/9---------------------|
C#|---------------------------------------------------------------------------|
(continued)
C#|---------------------------------------------------------------------------|
G#|---------------------------------------------------------------------------|
E |-------7-9\--9--------------7-7----------------------7-7-7-7---------------|
B |----7h9-------7-9-9p7----7h9-9-9-9--9-7-7--------7-9--------7-9------------|
F#|-7h9------------------7h9--------------9------7h9--------------------------|
C#|------------------------------------------7h10-----------------------------|



************************************

| /   slide up
| \   slide down
| h   hammer-on
| p   pull-off
| ~   vibrato
| +   harmonic
| x   Mute note
| b   Bend
| pb  Pre-bend
| br  Bend release
| pbr Pre-bend release
| brb Bend release bend

************************************
Tap to rate this tab
 
# A B C D E F G H I J K L M N O P Q R S T U V W X Y Z