Song name
# A B C D E F G H I J K L M N O P Q R S T U V W X Y Z

Sean Kingston - Magical tab

-------------------------------------------------------------------------------
                             MAGICAL  Sean Kingston
-------------------------------------------------------------------------------
Tabbed by: Kilian_Schnei
E-mail: Kilian_Schneider@outlook.com

Tuning: E A D G H E

e|---------------------------------------------------------------------|
B|--------------1-------------------------------3----------------------|
G|----------0-------0-----------0-----------0-------0-----------0------|
D|------2---------------2---------------0---------------0--------------|
A|--3-----------------------3------------------------------------------|
E|----------------------------------3-----------------------3----------|

e|----------------------------------------------1----------------------|
B|--------------1---------------------------1-------1-----------1------|
G|----------2-------2-----------2-------2---------------2--------------|
D|------2---------------2-----------3-----------------------3----------|
A|--0-----------------------0------------------------------------------|
E|---------------------------------------------------------------------|

That should be it 
Its actually just the Chords C G Am F with the G a little bit different 
And its played about 6 times
Tap to rate this tab
# A B C D E F G H I J K L M N O P Q R S T U V W X Y Z