Song name
# A B C D E F G H I J K L M N O P Q R S T U V W X Y Z

Sean Lennon - Mystery Juice chords

Highlighted       Show chord diagrams
     C2   G2   G3
E|---0----0----0--|
B|---1----0----0--|
G|---2----0----0--|
D|---0----0----0--|
A|---3----2----5--|
E|---0----3----6--|


    She_   won't  speak  to  me...Won't speak...
E|----------------------------------------------|
B|----------------------------------------------|
G|----------------------------------------------|
D|----------------------------------------------|
A|-----------------------3----------------------|
E|---2-------1------5---------1----4-----5------|

   And     it's all...   my own fault.
E|----------------------------------------------|
B|----------------------------------------------|
G|----------------------------------------------|
D|----------------------------------------------|
A|--5?------------------------------------------|
E|---------------3--------------------1-55------|


F#m                   F        A
  Baby, I'm afraid to let you go
      C                 C2
They stole the show and towed the rowboat
G2      A
Though slow
      G3               G2                F - A
We're on the go like rabbits in the snow

F#m                   F        A
   Baby, I'm a lonely kind of man
      C                 C2
Like a rapper with a forty in his hand
    G2      A
I can't stand
      G3               G2                F - A
When you talk about that other man

 G2                F - A

F#m                      F  A
   Every day I watch the TV shows
      C          C2
It's getting so I know the shows hosts
G2      A
I don't boast
G3             G2                   F - A
Maybe I should try and make the most

F#m                       F          A
   I'm always biting more than I can chew
   C                  C2
To loose the blues I choose to flew the coop
G2      A
Who knew?
    G3              G2                     F - A
and Is it news that you were out the loop?

G G G G G F - A ...

F#m                      F      A
   Dreaming is a singing of the mind
    C                  C2
And taste is just like seeing to the blind.
Tap to rate this tab
# A B C D E F G H I J K L M N O P Q R S T U V W X Y Z