Song name
# A B C D E F G H I J K L M N O P Q R S T U V W X Y Z

Sean Murray - Rooftops tab

Artist's Official Site - http://www.seanmurraymusic.com/index.html

Artist: Sean Murray
Album: Call of Duty Black Ops
Song: Rooftops
Tabbed By: A Dead Fly

There's not a lot to this song, but if you want to play it on guitar
correctly you have to drop tune your low E to a G#, since most people
don't want to do that I also put it one octave up for standard tuning,
and if you want to play this on bass just play the standard tuning guitar,
it will sound just like in the song since its one octave lower.  

0:13 - 0:46 Plays this continuously very quietly and palm muted

Dropped tuning

e |------------------|-------------------|
B |------------------|-------------------|
G |------------------|-------------------|
D |------------------|-------------------|
A |------------------|-------------------|
G#|-4--4-----4--4----|-4-4-4--4-----4--4-|

Standard tuning / Bass

e|------------------|-------------------|
B|------------------|-------------------|
G|------------------|-------------------|
D|------------------|-------------------|
A|-3--3-----3--3----|-3-3-3--3-----3--3-|
E|------------------|-------------------|

0:46 - 0:59

Louder, but still palm muted and constantly repeated for time interval

Dropped Tuning

e |----------------|----------------|----------------|
B |----------------|----------------|----------------|
G |----------------|----------------|----------------|
D |----------------|----------------|----------------|
A |----------------|----------------|----------------|
G#|-4--4----2-4--4-|-2--4--4-2-2--4-|4---2-4--4--4--4|

Standard tuning / Bass

e|----------------|----------------|----------------|
B|----------------|----------------|----------------|
G|----------------|----------------|----------------|
D|----------------|----------------|----------------|
A|-3--3----1-3--3-|-1--3--3-1-1--3-|3---1-3--3--3--3|
E|----------------|----------------|----------------|

0:59 Unmuted with distortion and delay

Dropped Tuning

Pick the two's really fast 

e |----------------|
B |----------------|
G |----------------|
D |----------------|
A |----------------|
G#|-2-2--4--4------|
 
Standard tuning / Bass

Pick the one's really fast 

e|----------------|
B|----------------|
G|----------------|
D|----------------|
A|-1-1--3--3------|
E|----------------|

1:08

Dropped Tuning

e |----------------|
B |----------------|
G |----------------|
D |----------------|
A |----------------|
G#|-2-2--4v--------|

Bend the 4 up slightly and use vibrato

Standard tuning / Bass

e|----------------|
B|----------------|
G|----------------|
D|----------------|
A|-1-1--3v--------|
E|----------------|

Bend the 3 up slightly and use vibrato

1:31 - 2:09 (repeat riffs continuously)

Dropped Tuning

e |----------------|----------------|----------------|
B |----------------|----------------|----------------|
G |----------------|----------------|----------------|
D |----------------|----------------|----------------|
A |----------------|----------------|----------------| 
G#|-4--4-----2-2-4-|4-----2-2-4--4--|-4--4--5--2--2--|

Standard tuning / Bass

e|----------------|----------------|----------------|
B|----------------|----------------|----------------|
G|----------------|----------------|----------------|
D|----------------|----------------|----------------|
A|-3--3-----1-1-3-|3-----1-1-3--3--|-3--3--4--1--1--|
E|----------------|----------------|----------------|

2:09 - 2:43

This is the main theme, you play this constantly through the time interval, 
except at the very end where you play the last bar one extra time before
switching

Dropped Tuning

e |----------------|----------------|----------------|
B |----------------|----------------|----------------|
G |----------------|----------------|----------------|
D |----------------|----------------|----------------|
A |----------------|----------------|----------------| 
G#|-4--4------4--4-|------2-2-4--4--|5--2---2--4--4--|

Standard tuning / Bass

e|----------------|----------------|----------------|
B|----------------|----------------|----------------|
G|----------------|----------------|----------------|
D|----------------|----------------|----------------|
A|-3--3------3--3-|------1-1-3--3--|4--1---1--3--3--|
E|----------------|----------------|----------------|

2:43 - 2:50

Dropped Tuning

e |----------------|----------------|----------------|----------------|
B |----------------|----------------|----------------|----------------|
G |----------------|----------------|----------------|----------------|
D |----------------|----------------|----------------|----------------|
A |----------------|----------------|----------------|----------------|
G#|--0--0------0-0-|-0--0--------0-0|-0--0-------0-0-|0--0--------0-0-|

Standard tuning / Bass

e|----------------|----------------|----------------|----------------|
B|----------------|----------------|----------------|----------------|
G|----------------|----------------|----------------|----------------|
D|----------------|----------------|----------------|----------------|
A|----------------|----------------|----------------|----------------|
E|--4--4------4-4-|-4--4--------4-4|-4--4-------4-4-|4--4--------4-4-|

2:50 - 3:04

Dropped Guitar

e |----------------|----------------|----------------|
B |----------------|----------------|----------------|
G |----------------|----------------|----------------|
D |----------------|----------------|----------------|
A |----------------|----------------|----------------| 
G#|-4--4-------4--4|----2-2-4--4----|-4--4--5--2--2--|

e |----------------|----------------|----------------|----------------|
B |----------------|----------------|----------------|----------------|
G |----------------|----------------|----------------|----------------|
D |----------------|----------------|----------------|----------------|
A |----------------|----------------|----------------|----------------|
G#|--0--0------0-0-|-0--0--------0-0|-0--0-------0-0-|0--0------------|

Standard / Bass

e|----------------|----------------|----------------|
B|----------------|----------------|----------------|
G|----------------|----------------|----------------|
D|----------------|----------------|----------------|
A|-3--3------3--3-|-----1-1-3--3---|-3--3--4--1--1--|
E|----------------|----------------|----------------|

e|----------------|----------------|----------------|----------------|
B|----------------|----------------|----------------|----------------|
G|----------------|----------------|----------------|----------------|
D|----------------|----------------|----------------|----------------|
A|----------------|----------------|----------------|----------------|
E|--4--4------4-4-|-4--4--------4-4|-4--4-------4-4-|4--4------------|

The End

Email me at azlizard13@yahoo.com

Please give me credit if you use this tab for a video
Tap to rate this tab
 
# A B C D E F G H I J K L M N O P Q R S T U V W X Y Z