Sean Riley And The Slowriders - Buffalo Turnpike tab

-------------------------------------------------------------------------------
	        Buffalo Turnpike - Sean Riley & The Slowriders
-------------------------------------------------------------------------------
Tabbed by: Joana P.


Tuning: standard

Neste momento estou a trabalhar na musica toda em formato guitar pro,
com todos os instrumentos. Quando acabar ponho-a tambem aqui, mas
enquanto nao acabo, deixo aqui os solos da musica.
A musica tem dois solos.



FIRST SOLO:


e|---------------------------------------------------------------------------|
B|---------------------------------------------------------------------------|
G|---------------5----7br-7--5-----5-----------------5----7br-7--5-----5-----|
D|-------5--5h7-----------------7------------5--5h7-----------------7--------|
A|--5h7---------------------------------5h7----------------------------------|
E|---------------------------------------------------------------------------|

e|---------------------------------------------------------------------------|
B|----------5---------------------------5------------------------------------|
G|-----7b*-*b7---7--5----5--------7b*-*b7---7--5----5------------------------|
D|--------------------7---------------------------7--------------------------|
A|---------------------------------------------------------------------------|
E|---------------------------------------------------------------------------|
 *(mantem o bend)

e|---------------------------------------------------------------------------|
B|---------------------------------------------------------------------------|
G|---7p5------5--7p5----5--7p5------5--7p5----5---7p5------5-----------------|
D|-------7-----------7----------7----------7----------7----------------------|
A|---------------------------------------------------------------------------|
E|---------------------------------------------------------------------------|

e|---------------------------------------------------------------------------|
B|---------------------------------------------------------------------------|
G|---9-9-9-9-9-9-9-9-9-9-9-9-9-9-9-9-----------------------------------------|
D|---------------------------------------------------------------------------|
A|---------------------------------------------------------------------------|
E|---------------------------------------------------------------------------|

e|---------------------------------------------------------------------------|
B|---------------------------------------------------------------------------|
G|---12-12-12-12-12-12-12-12-12-12-12-12-12-12-12-12-------------------------|
D|---------------------------------------------------------------------------|
A|---------------------------------------------------------------------------|
E|---------------------------------------------------------------------------|

e|---------------------------------------------------------------------------|
B|---------------------------------------------------------------------------|
G|---14-14-14-14-14-14-14-14-14-14-14-14-14-14-14-14-------------------------|
D|---------------------------------------------------------------------------|
A|---------------------------------------------------------------------------|
E|---------------------------------------------------------------------------|

e|---------------------------------------------------------------------------|
B|-------------------------------- 12-----------------------12---------------|
G|--12--12--14--12--14--12--14b*-*b14--14--12----12--14b*-*b14--14--12----12-|
D|--------------------------------------------14-----------------------14----|
A|---------------------------------------------------------------------------|
E|---------------------------------------------------------------------------|
 *(mantem o bend)

e|-------------------------------------------------------0--3--2--0----------|
B|--------- 12-----------------------12------------------1--3--3--1----------|
G|---14b*-*b14--14--12----12--14b*-*b14--14--12----12----2--0--2--0----------|
D|---------------------14-----------------------14-------2--0--0--2----------|
A|-------------------------------------------------------0--2-----3----------|
E|----------------------------------------------------------3----------------|




SECOND SOLO:
(e quase a mesma coisa que o primeiro so muda o final)



e|---------------------------------------------------------------------------|
B|---------------------------------------------------------------------------|
G|---------------5----7br-7--5-----5-----------------5----7br-7--5-----5-----|
D|-------5--5h7-----------------7------------5--5h7-----------------7--------|
A|--5h7---------------------------------5h7----------------------------------|
E|---------------------------------------------------------------------------|

e|---------------------------------------------------------------------------|
B|----------5---------------------------5------------------------------------|
G|-----7b*-*b7---7--5----5--------7b*-*b7---7--5----5------------------------|
D|--------------------7---------------------------7--------------------------|
A|---------------------------------------------------------------------------|
E|---------------------------------------------------------------------------|
 *(mantem o bend)

e|---------------------------------------------------------------------------|
B|---------------------------------------------------------------------------|
G|---7p5------5--7p5----5--7p5------5--7p5----5---7p5------5-----------------|
D|-------7-----------7----------7----------7----------7----------------------|
A|---------------------------------------------------------------------------|
E|---------------------------------------------------------------------------|

e|---------------------------------------------------------------------------|
B|---------------------------------------------------------------------------|
G|---9-9-9-9-9-9-9-9-9-9-9-9-9-9-9-9-----------------------------------------|
D|---------------------------------------------------------------------------|
A|---------------------------------------------------------------------------|
E|---------------------------------------------------------------------------|

e|---------------------------------------------------------------------------|
B|---------------------------------------------------------------------------|
G|---12-12-12-12-12-12-12-12-12-12-12-12-12-12-12-12-------------------------|
D|---------------------------------------------------------------------------|
A|---------------------------------------------------------------------------|
E|---------------------------------------------------------------------------|

e|---------------------------------------------------------------------------|
B|---------------------------------------------------------------------------|
G|---14-14-14-14-14-14-14-14-14-14-14-14-14-14-14-14-------------------------|
D|---------------------------------------------------------------------------|
A|---------------------------------------------------------------------------|
E|---------------------------------------------------------------------------|

e|---------------------------------------------------------------------------|
B|------------------------------- 15-----------------------------------------|
G|-12--12--14--12--14--12--17b*-*b17--17--14----14--14--------12--14--12--14-|
D|-------------------------------------------17---------12h14----------------|
A|---------------------------------------------------------------------------|
E|---------------------------------------------------------------------------|
 *(mantem o bend)
e|---------------------------------------------------------------------------|
B|------------------------------- 15-----------------------------------------|
G|-12--12--14--12--14--12--17b*-*b17--17--14----14--14--------12--14--12--14-|
D|-------------------------------------------17---------12h14----------------|
A|---------------------------------------------------------------------------|
E|---------------------------------------------------------------------------|
 *(mantem o bend)
e|---------------------------------------------------------------------------|
B|--------- 12-----------------------12--------------------------------------|
G|---14b*-*b14--14--12----12--14b*-*b14--14--12----12------------------------|
D|---------------------14-----------------------14---------------------------|
A|---------------------------------------------------------------------------|
E|---------------------------------------------------------------------------|
 *(mantem o bend)

e|-------------------------------------------------------0-------------------|
B|--------- 12-----------------------12------------------1-------------------|
G|---14b*-*b14--14--12----12--14b*-*b14--14--12----12----2-------------------|
D|---------------------14-----------------------14-------2-------------------|
A|-------------------------------------------------------0-------------------|
E|---------------------------------------------------------------------------|
  *(mantem o bend)                                          "This place is a..."


Tap to rate this tab
 
# A B C D E F G H I J K L M N O P Q R S T U V W X Y Z