Seance - Saltrubbed Eyes tab

Seance - Saltrubbed Eyes


D Standard Tuning (all strings down whole step)

* = Staccato            /// = Tremelo Picking     x = Pick Slide
~ = Slight Vebrato      { } = Triplets
. = Palm Mute             ] = Mute
< = Build Up              ^ = Upstroke
\ = Slide Down       b(1/2) = Bend (half step)
/ = Slide Up              r = Release


INTRO
d|------------------------------------------------------------------------|
A|------------------------------------------------------------------------|
F|5-------------5-------------5-------------5-------3-4-------------------|
C|5-3---3-------5-3---3-------5-3---3-------5-3---3-3-2-3-----------------|
G|3-3---3-------3-3---3-------3-3---3-------3-3---3-1-2-3-----3-2-3-4-3-2-|
D|--1---1---------1---1---------1---1---------1---1-----1-----------------|
        *             *             *
d|------------------------------------------------------------------------|
A|------------------------------------------------------------------------|
F|5-------------5-------------5-------------5-------2---3---6~--------3---|
C|5-3---3-------5-3---3-------5-3---3-------5-3---3-2---3---6~--------3---|
G|3-3---3-------3-3---3-------3-3---3-------3-3---3-0---1---4~--------1---|
D|--1---1---------1---1---------1---1---------1---1-----------------------|
        *             *             *

RIFF A PT.1
d|---------------------------------------------------------------|
A|---------------------------------------------------------------|
F|5-------------5-------------5-------------5-------2--3---6--9--|
C|5-3---3-------5-3---3-------5-3---3-------5-3---3-2--3---6--9--|
G|3-3---3-------3-3---3-------3-3---3-------3-3---3-0--1---4--7--|
D|--1---1---------1---1---------1---1---------1---1--------------|
        *             *             *
RIFF A PT.2
d|-----------------------------------------------------------------------|
A|-----------------------------------------------------------------------|
F|5-------------5-------------5-------------5----------4-----------------|
C|5-3---3-------5-3---3-------5-3---3-------5-3---3----4-3---<-----------|
G|3-3---3-------3-3---3-------3-3---3-------3-3---3----2-3---3-3-3-3-3-3-|
D|--1---1---------1---1---------1---1---------1---1------1---1-1-1-1-1-1-|
        *             *             *             *          . . . . . .

RIFF B
d|----------------------------------------------------------|
A|----------------------------------------------------------|
F|----------------------------------------------------------|
C|-3-2--2-2--2-2--2-2----------3-2--2-2--2-2--2-------2-1---|
G|---------------------3-4-3-1------------------4-3-4-----4-|
D|----------------------------------------------------------|
        .    .    .                 .    .    .
d|------------------------------------------------------|
A|------------------------------------------------------|
F|------------------------------------------------------|
C|-3-2--2-2--2-2--2-2-----------------------------------|
G|--------------------5-6-5-3-4-3--4-3--4-3--4-3--4/9-9-|
D|------------------------------------------------------|
        .    .    .

RIFF C
d|----------------------------------------------------------|
A|----------------------------------------------------------|
F|----------------------------------------------------------|
C|-3/6-6--3/6-6--3/6-6--3/7-7--3/6-6--3/6-6--3/7-7----------|
G|-3/6-6--3/6-6--3/6-6--3/7-7--3/6-6--3/6-6--3/7-7--3-3-3-3-|
D|-1/4-4--1/4-4--1/4-4--1/5-5--1/4-4--1/4-4--1/5-5--1-1-1-1-|
                                                    . . . .
d|-------------------------------------------------------|
A|-------------------------------------------------------|
F|-------------------------------------------------------|
C|-3/6-6--3/6-6--3/6-6--3/7-7--3/6-6--3/8-8--3/9-9--9\6--|
G|-3/6-6--3/6-6--3/6-6--3/7-7--3/6-6--3/8-8--3/9-9--9\6--|
D|-1/4-4--1/4-4--1/4-4--1/5-5--1/4-4--1/6-6--1/7-7--7\4--|


RIFF D                                         1st time 2nd time
d|--------------------------------------------|--------|--------|
A|--------------------------------------------|--------|--------|
F|5--------------5--------------5-------------|--------|--------|
C|5-3---3--3--6--5-3---3--6--9--5-3---3--3--6-|-2///---|-4///---| x2
G|3-3---3--------3-3---3--------3-3---3-------|--------|--------|
D|--1---1----------1---1----------1---1-------|--------|--------|
        *  *  *        *  *  *        *  *  *

RIFF A PT.2 x1
RIFF B x1
RIFF C x1


BRIDGE 1
d|-------------------------------------|
A|-------------------------------------|
F|-----------------------3-6-4---------|
C|-5-4-3------5-4-3------3-6-4---6-----|
G|-5-4-3------5-4-3------1-4-2---6-----|
D|-3-2-1------3-2-1--------------4-----|


RIFF E
Guitar 1 (ROB)
d|--------------------------------------------------|
A|--------------------------------------------------|
F|--------------------------------------------------|
C|--------------------------------------------------| x2
G|-3-3-3-3--3-3-3-3--3-3-3-3------------------------|
D|-1-1-1-1--1-1-1-1--1-1-1-1--1-1-1-2-{4-2-1}-------|
   . . . *   . . .*  . . . *  . . . .  . . .
Guitar 2 (JOSH/ZACK)
d|--------------------------------------------------|
A|--------------------------------------------------|
F|--------------------------------------------------|    Second time do
C|--------------------------------------------------| x2 first 3 PMs with
G|-3~-------------]--3~-----------------------------|    guitar 1, then
D|-1~-------------]--1~---------------{4-2-1}-------|    hold chord

Together
d|-----------------------------------------------------------------|
A|-----------------------------------------------------------------|
F|-----------------------------------------------------------------|
C|-----------------------------------------1-2-1-1-2-1-------4-4-4-|
G|-----------------0-------0-----------0---------------4-3-4-------|
D|-1-1-1-2-{4-2-1}---4-2-4---4-2-1-2-4---4-------------------------|
   . . . .  . . .


RIFF F PT.1
d|-----------------------------------|
A|-----------------------------------|
F|-----------------------------------|
C|-3---3---3---3---3---3---3---4-6-4-| x2 Second time upstroke
G|-3---3---3---3---3---3---3---4-6-4-|    the first chord
D|-1---1---1---1---1---1---1---2-4-2-|
       *       *       *
RIFF F PT.2
d|------------------------------------------------------------------|
A|------------------------------------------------------------------|
F|------------------------------------------------------------------|
C|------------------------------------------------------------------|
G|-5--5--5--5-6-5-5--5--5-6-5-5-6-5-5--5--5--5-6-5-5--5-------3-4-3-|
D|-3--3--3--------3--3--------------3--3--3--------3--3-5-6-5-------|

RIFF F PT.3
d|---------------------------------------------------------------------|
A|---------------------------------------------------------------------|
F|---------------------------------------------------------------------|
C|-3---3---3---3---3---3---3--3--3---3---3---3---3---3-----------------|
G|-3---3---3---3---3---3---3--3--3---3---3---3---3---3-----------------|
D|-1---1---1---1---1---1---1--1--1---1---1---1---1---1---1-1-1-3-4-3---|
       *       *       *   *  *      *       *       *   . . .


RIFF F PT.2 x1


BRIDGE 2
d|-------------------|
A|-------------------|
F|-------------------|
C|-------------------|
G|-------2------5----|
D|-4-3-4---4----3----|
           *    *


RIFF G PT.1
d|------------------------------------|
A|------------------------------------|
F|------------------------------------|
C|-3--3--3--3--3--3-------------------|
G|-3--3--3--3--3--3-------------------|
D|-1--1--1--1--1--1--4---2-4-4b(1/2)r-|
      *     *     *
RIFF G PT.2
d|--------------------------------------------------|
A|--------------------------------------------------|
F|--------------------------------------------------|
C|-3--3--3--3---------------------------------------|
G|-3--3--3--3---------------------2-----------------|
D|-1--1--1--1--4---2-4-4b(1/2)r-1---4b(1/2)r--------|
      *     *

RIFF G PT.1 x1

RIFF G PT.3
d|-----------------------------------------------------|
A|-----------------------------------------------------|
F|-----------------------------------------------------|
C|-3--3--3--3------------------------------------------|
G|-3--3--3--3----------------------2-3--6-5--2-3--4///-|
D|-1--1--1--1--4--2-4-4b(1/2)r-1-1---------------------|
      *     *                  . .   *    *    *


RIFF H PT.1
d|---------------------------------------------------------|
A|---------------------------------------------------------|
F|---------------------------------------------------------|
C|-3--3--3--3--3--3-----------3--3--3--3-------------------|
G|-3--3--3--3--3--3-------0---3--3--3--3-------0----/3-2---|
D|-1--1--1--1--1--1-4-2-4---4-1--1--1--1-4-2-4---2-4-----4-|
      *     *     *              *     *
RIFF H PT.2
d|--------------------------------------------------|
A|--------------------------------------------------|
F|--------------------------------------------------|
C|-3--3--3--3--3--3---------------------------------|
G|-3--3--3--3--3--3-------0-----0--3-2--0-1--2///---|
D|-1--1--1--1--1--1-4-2-4---4-4---------------------|
      *     *     *             *    *    *
RIFF H PT.1 x 1

RIFF H PT.3
d|-------------------------------------------------------|
A|-------------------------------------------------------|
F|-------------------------------------------------------|
C|-3--3--3--3--3--3--------------------------------------|
G|-3--3--3--3--3--3---0-3-2---0-3-2---0-3-2---0-2-0---0--|
D|-1--1--1--1--1--1-4-------4-------4-------4------------|
      *     *     *                                   *


BRIDGE 3
d|---------------------------------------------------------|
A|---------------------------------------------------------|
F|-4-2--2----------------------4-2--2------4-2--2----------|
C|-4-2--2----------------------4-2--2------4-2--2------6---|
G|-2-0--0----------2-1-----2-1-2-0--0------2-0--0------6---|
D|-------------3-4-----3-4-----------------------------4---|
        *      . . . . . . . .      *           *      *


RIFF A PT.3
d|-----------------------------------------|
A|-----------------------------------------|
F|5-------------5--------------------------|
C|5-3---3-------5-3---3-------6--3--6--3---|
G|3-3---3-------3-3---3-------6--3--6--3---|
D|--1---1---------1---1-------4--1--4--1---|
        *             *       *  *  *  *
RIFF A PT.4
d|----------------------------------|
A|----------------------------------|
F|5-------------5-------2--3---6--9-|
C|5-3---3-------5-3---3-2--3---6--9-|
G|3-3---3-------3-3---3-0--1---4--7-|
D|--1---1---------1---1-------------|
        *             *

RIFF A PT.3 x1

RIFF A PT.5
d|---------------------------------|
A|---------------------------------|
F|5-------------5-------3--6~------|
C|5-3---3-------5-3---3-3--6~------|
G|3-3---3-------3-3---3-1--4~------|
D|--1---1---------1---1------------|
        *             *


RIFF I PT.1
d|----------------------------------------------------|  *Make sure to let
A|----------------------------------------------------|   the chord you slide
F|----------------------------------------------------|   into ring over the
C|-6/7~~~-3-3--6/7~~~-3-3--8/9~~~-3-3--6/7~~~---------|   power chord that
G|-6/7--7-3-3--6/7--7-3-3--8/9--9-3-3--6/7--7-3-3-3-3-|   comes right after
D|-4/5--5-1-1--4/5--5-1-1--6/7--7-1-1--4/5--5-1-1-1-1-|
                                              . . . .
RIFF I PT.2
d|--------------------------------------------------|
A|--------------------------------------------------|
F|------------------------3/4---5/6---7/8---6-------|
C|-6/7~~~-3-3--8/9~~~-3-3-3/4---5/6---7/8---6-------|
G|-6/7--7-3-3--8/9--9-3-3-1/2-2-3/4-4-5/6-6-4-------|
D|-4/5--5-1-1--6/7--7-1-1---------------------------|
                              .     .     .

RIFF C x1


OUTRO
d|-------------------------|
A|-------------------------|
F|-------------------------|
C|-6~------3~--------------|
G|-6~--x---3~-ring out-----|
D|-4~---\--1~--------------|

I could not find their official website, but they ARE a signed band with 4 album 
signed to the label "Pulverised Records".
Here is their myspace: http://www.myspace.com/seanceseance
Here is the myspace to their label: http://www.myspace.com/pulverisedrecords
Tap to rate this tab
 
# A B C D E F G H I J K L M N O P Q R S T U V W X Y Z