Song name
# A B C D E F G H I J K L M N O P Q R S T U V W X Y Z

Seapony - With You tab

Alright i figured everything by ear. It may not be 100%correct but its close.Guitar 2 is 
simple its just chords on CAPO 4 I'm sorry i didn't post lyrics No lyrics were found. 
So ill try my best to post the chords by sequence and hopefully you can figure it out.

*GUITAR 1*
    Intro   (On second time add the 4)
e|------------------------------------------------------------------|
B|------------------------------------------------------------------|
G|---------------4--------------------------------------------------| 2X
D|-4-----6-6---------6-----4--6--4---------(4)----------------------|
A|---------------------------------6-6------------------------------|
E|------------------------------------------------------------------|
   Verse
e|------------------------------------------------------------------|
B|------------------------------------------------------------------|
G|------------------------------------------------------------------|2x
D|--6-6---4---------------------------------------------------------|
A|-----------6--4--6--4---------------------------------------------|
E|-------------------------7----------------------------------------|
   Chorus
e|------------------------------------------------------------------|
B|------------------------------------------------------------------|
G|-----------------------------6--66--4-4---------------------------|
D|-4-4-4--6------66--4-6-{2x}-------------6-6--4-4-4--{2x}----------|
A|-----------4----------------------------------------------4-{2x}--|
E|--------------------------------------------------------7---------|
     (Then it goes back to the intro and repeat the process until the end skip down to here)

e|-------------------------------------------------------------|
B|-------------------------------------------------------------|
G|--6--66---4-4-----------------------4------------------------|
D|----------------6-6--4-4-4---{4x}----------------------------|
A|-------------------------------------------------------------|
E|-------------------------------------------------------------|

*GUITAR 2*
INTRO
 G
Verse
G       Am
When you.................

Chorus
D              Am
Don't know what to do

                 G      Am      D
When im with you
Tap to rate this tab
# A B C D E F G H I J K L M N O P Q R S T U V W X Y Z