Song name
# A B C D E F G H I J K L M N O P Q R S T U V W X Y Z

Seapony - What You Wanted tab

Seapony - What You Wanted
From the album Falling (Hardly Art 2012).

Tabbed by Isaac Murguia, July 2012.
YouTube: Goadiroth

**** CAPO on 4th Fret ****

Seapony was kind enough to tell me the chords.
Listen to the song for strumming patterns.

INTRO RIFF:
e|-----------------------|      |-------|
B|-----------------------|      |-------|
G|-----------------------|      |-------|
D|-9--9\6-6-6--000-6-0-6-|      |-0-----|
A|-----------------------|      |-------|
E|-----------------------| [x4] |-------|

VERSE: (Bm / D)                  CHORUS: (Em / A)
e|-6-----------6---------|      |-0-----------0---------|
B|-7-----------7---------|      |-0-----------6---------|
G|-8-----------6---------|      |-0-----------6---------|
D|-8-----------0---------|      |-6-----------6---------|
A|-6---------------------|      |-6-----------0---------|
E|-----------------------| [x4] |-0---------------------| [x8]

Repeat VERSE [x4]
Repeat CHORUS [x8]

BRIDGE: (D / G / Em / A)
e|-6----7----0----0------|
B|-7----7----0----6------|
G|-6----0----0----6------|
D|-0----0----6----6------|
A|------6----6----0------|
E|------7----0-----------| [x4]

Repeat INTRO [x4]
Repeat VERSE [x4]
Repeat CHORUS [x16]

END CHORD: (D)
e|-6-----------|
B|-7-----------|
G|-6-----------|
D|-0-----------|
A|-------------|
E|-------------|
Tap to rate this tab
# A B C D E F G H I J K L M N O P Q R S T U V W X Y Z