Song name
# A B C D E F G H I J K L M N O P Q R S T U V W X Y Z

Seapony - Where We Go tab

(/) Slide Up  (\) Slide Down  (h) Hammer On  (p) Pull Off  (b) Bend (r) Release (v) Vibrato

Intro:
E|----------------------------------------------------------------|
B|--10--10--8--8------------------------10--10--8--8--------------|
G|----------------7----9--7--9------------------------7--------7--|
D|---------------------------------------------------------10-----|
A|----------------------------------------------------------------|
E|----------------------------------------------------------------|



E|--------------------------------------------------------------------|
B|--10--10--8--8------------------------10--10--8--8------------------|
G|----------------7----9--7--9------------------------7--------7------|
D|---------------------------------------------------------10-----10--|
A|--------------------------------------------------------------------|
E|--------------------------------------------------------------------|


Elsewhere:
E|--------------8---------------------------------------------|
B|--10--10--10-----8----8----8-------------------8------------|
G|--------------------------------------9--9--9-----7------7--|
D|-----------------------------------------------------10-----|
A|------------------------------------------------------------|
E|------------------------------------------------------------|



E|--------------8-------------------------------------------------|
B|--10--10--10-----8----8----8-------------------8----------------|
G|--------------------------------------9--9--9-----7------7------|
D|-----------------------------------------------------10-----10--|
A|----------------------------------------------------------------|
E|----------------------------------------------------------------|
Tap to rate this tab
# A B C D E F G H I J K L M N O P Q R S T U V W X Y Z