Song name
# A B C D E F G H I J K L M N O P Q R S T U V W X Y Z

Search The City - Talk Is Cheap And Ive Got Expensive Taste tab

-------------------------------------------------------------------------------
			     Talk Is Cheap and I've Got Expensive Taste - Search The City
-------------------------------------------------------------------------------
Tabbed by: JimmyFullBlast (guitarist of search the city)
Email: jamesczec@hotmail.com

Tuning:(half step down and low E tuned to C#) enjoy!
  intro
e|--------------------------------------------------------------------------------|
B|-------------------------3-3-3--------------------------------------------------|
G|-x-6-6-6-6--x-7-7-7-7--x-2-2-2--------------------------------------------------|
D|-x-4-4-4-4--x-5-5-5-5--x-4-4-4--------------------------------------------------|
A|-x-5-5-5-5--x-7-7-7-7--x-2-2-2--5-5-5-5-5-5-5--0--9-7-----7-5-4h5----9-7-5------|
E|--------------------------------5-5-5-5-5-5-5--0-0-0-0-4-4-4-4---4-55-5-5-------|
  verse
e|--------------------------------------------------------------------------------------|
B|------------7---7---------------------7-----------------------------------------------|
G|------------7---7---------------------7--11--9----------------------------------------|
D|------------0---0---------------------5--9---7----------------------------------------|
A|-7s999s7p0--5---5--7h9-7p0-9h7p0--5-5-5--9---7----------------------------------------|
E|------------0-0-0-----------------5-5-5--9---7----------------------------------------|
  chorus
e|------------------------------------------|
B|------------------------------------------|
G|------------------------------------------|
D|------------------------------------------|
A|-5-5-5-5-5-5-5-5-7-7-7-7-7-7h9-9-9-9-7-0--|
E|-5-5-5-5-0-0-0-0-7-7-7-7-7-7h9-9-9-9-7-0--|
  2nd verse (same as the first, but the last 2 bars are different here it is)
e|------------------------------------------------------------------|
B|------------------------------------------------------------------|
G|------------------------------------------------------------------|
D|--5-5-5-5-5-5-5-5--11-11-11-11-11-11-11-11--5-5-5-5-5-5-5-5-------|
A|--2-2-2-2-2-2-2-2--7--7--7--7--7--7--7--7---2-2-2-2-2-2-2-2-------|
E|--2-2-2-2-2-2-2-2--7--7--7--7--7--7--7--7---2-2-2-2-2-2-2-2-------|

e|------------------------------------------------------------------|
B|------------------------------------------------------------------|
G|------------------------------------------------------------------|
D|--11-11-11-11---12-12-12-12-12-12-12-12--11-11-11-11-11-11-11-11--|
A|--7--7--7--7----9--9--9--9--9--9--9--9---9--9--9--9--9--9--9--9---|
E|--7--7--7--7----9--9--9--9--9--9--9--9---8--8--8--8--8--8--8--8---|
 bridge
e|-----------------------------------------------|
B|-----------------------------------------------|
G|-----------------------------------------------|
D|-7-7-7-7-7--7-7-7-7-7--7-7-7-7-7---------------|
A|-5-5-5-5-5--5-5-5-5-5--5-5-5-5-5--7-7-7-7-7-7--|
E|-4-4-4-4-4--5-5-5-5-5--0-0-0-0-0--7-7-7-7-7-7--|

e|--------------------------------------------------------------------------------------|
B|------5-------------------5---------7-------------------------------------------------|
G|----7--7--------7-------6--6------7--7------------------------------------------------|
D|-----7--7-----7--7-------7--7------7--7-----------------------------------------------|
A|---5-----5---5-5--5----4-----4---9-----9----------------------------------------------|
E|--0---------5------5--4---------9-----------------------------------------------------|

e|----------------------------------------------|
B|----------------------------------------------|
G|----7799----7799----77-----6677----6677-------|
D|----7777----7777----77-----7777----7777-------|
A|-55------55------55-----44------44------4444--|
E|-55------55------55-----44------44------4444--|


| /  slide up
| \  slide down
| h  hammer-on
| p  pull-off
| ~  vibrato
| +  harmonic
| x  Mute note
===============================================================================
Tap to rate this tab
 
# A B C D E F G H I J K L M N O P Q R S T U V W X Y Z