Song name
# A B C D E F G H I J K L M N O P Q R S T U V W X Y Z

Search The City - In The Scene Your Just An Extra tab

e--------11--------------------------------------11----------------------------|
b---------------------13--13-----------------------------------13-11-13-11-13--|
g10-12-13--13-13-12h13--13--13-12h13----10-12-13---13-13-12h13-----------------|
d------------------------------------------------------------------------------|
a------------------------------------------------------------------------------|
e------------------------------------------------------------------------------|

e-------------------------------------|
b-------------------------------------|
g---8-10-8-13-12-10-8h10-10-8-10-10---|
d-10----------------------------------|x2
a-------------------------------------|
e-------------------------------------|
Tap to rate this tab
# A B C D E F G H I J K L M N O P Q R S T U V W X Y Z