Search - Rozana tab

-------------------------------------------------------------------------------
			     Rozana - Search
-------------------------------------------------------------------------------
Tabbed by:619HKL A.K.A Syafiq
Email:Cody_sw007@hotmail.com
Song:Rozana
Artist:Search
Tuning:EADGBe
I learn this tab from Guitar Video called..
"Guitar jamming SAMAD LEFTHANDED" I work this tab for 2 days..
and this is my first tab...So enjoy it!!!
pretty easy to play!!!!!
and the solo is really easy!!!!

INTRO:B/B/G/B/A/ 3X  /G

B
Gadis idamanku

      Ebm
Hanya engkau yang satu

E
Hadir lah dalam mimpi mimpiku

B                 Ebm
Biar seribu bira ramai menganggu

      E               B
Pada ku engkau lah Ratu

C#m   C#Aug   C#m7
Sejak mula  bertemu

     F#7      F#             B
Kau buat siangku sedingin salju

C#m   C#Aug      C#m7
Dan malam jadi hangat

  F#7        F#
Sehangat cintamu........

Kasihku

c/o


     B
  *Rozana

       E         B
Kau gadis indamanku

      E           B
Dua hati menjadi satu

       E        C#m    F#
Bila kita bertemu oh Rozana

    B
Rozana
      E         B
Kau gadis idamanku
      E              B
Bila kan sampainya waktu
        E      C#m         F#
Kasih kita bertemu dalam cinta
     B
Rozana


Solo
Yeay!!!!

e|----------------------------------4-------------------4-7----------9------------|
B|------------------------------------5---------------------5-------9-------------|
G|-9-8-------------------------5-5------------5-7-5p7pb--------11pb----11br12br---|
D|-----11-----11-9------------7---7--------/6-------------------------------------|
A|--------9b-------11-9-7/--------------------------------------------------------|
E|--------------------------------------------------------------------------------|

e|---------------------12-12---12----12-12-----15br16br-17b18b-17-18-17---------|
B|-13br14br--12-12----------14----14-------14--------------------------14-14----|
G|------------------\14---------------------------------------------------------|
D|------------------------------------------------------------------------------|
A|------------------------------------------------------------------------------|
E|------------------------------------------------------------------------------|

e|-9-------------------------------------------------------------------------|
B|---12-9-------------------------------------12-14-14-12-12-----------------|
G|--------11-9-----------------------9-9-12/14-------------------------------|
D|--------------11---------------9/11----------------------------------------|
A|-----------------11-11-9-7-------------------------------------------------|
E|---------------------------------------------------------------------------|


2nd guitar play:C#m/C#Aug/C#m7/F#7/F#/B/REPEAT
Sorry about the mess!!!!
Play the chorous until the end!!!!

K if any mistake of correction plezz email at Cody_sw007@hotmail.com
K adios!!!!!!!!!!
Tap to rate this tab
 
# A B C D E F G H I J K L M N O P Q R S T U V W X Y Z