Song name
# A B C D E F G H I J K L M N O P Q R S T U V W X Y Z

Search - Gadisku tab

SEARCH - Gadisku (intro and solo)


Key:

^  - bend
^^ - full bend
h  - hammer on
p  - pull off
r  - release bend
/  - slide down
\  - slide up
~  - vibrato
() - finger tap




(Intro solo:)


    C              Em        F              G#
e|-------------------------------------------------------|---|
B|-----------8-8h10-8~-----8-10--8-----------9-8----8----|---|
G|--9~--9-10------------10----------10--9-10-----10------|---|
D|-------------------------------------------------------|---|
A|-------------------------------------------------------|---|
E|-------------------------------------------------------|---|


    C             G   G
e|--------------------------------|---|
B|-----------8h10-8~--12~---------|---|
D|--9~--9-10----------------------|---|
G|--------------------------------|---|
A|--------------------------------|---|
E|--------------------------------|---|


C
Gadisku...






(Interlude:)


G#            C    G
Selautan kasturi...


    F       C  G
e|-----------------------|---|
B|--6--5--------8~-------|---|
D|--------7-5------------|---|
G|-----------------------|---|
A|-----------------------|---|
E|-----------------------|---|


C
Gadisku...






(First solo:)


  F              G#
Disulami cinta suci...


    Am                           Am
e|---------------------------------------------------------------------|
B|-------------------------------11-11-11------------------------------|
D|-------7--8--10/12-10h12-10-------------10-10-10---------------------|
G|--8-10-------------------------------------------12-12-12-10-10-10---|
A|---------------------------------------------------------------------|
E|---------------------------------------------------------------------|


                                    G
e|--------------------------------------------------------------------|
B|--------------------------------------------------------------------|
D|--------------------------------------------------------------------|
G|--8-8-8-----------------------------------9--10--12/14-12h14-12-----|
A|--------10-10-10-8-8-8--------------10-12---------------------------|
E|-----------------------10-10-10---8---------------------------------|


    G
e|-----------------------------------15-15-15~------|
B|-------------12-12-12---15-15-15------------------|
D|--12-12-12----------------------------------------|
G|--------------------------------------------------|
A|--------------------------------------------------|
E|--------------------------------------------------|


C
Gadisku...






(Second solo:)


F           C   (C-B)
Selama-lamanya...


    Am                                  Em        F             G
e|--------------------------------------------------------------15~----|
B|-------------------------------------------17~--18--17--15-13--------|
D|----------------------------14-13-14--13~----------------------------|
G|--7-6-7--10-9-10--14-13-14-------------------------------------------|
A|---------------------------------------------------------------------|
E|---------------------------------------------------------------------|


    C      Em               F            G#           C
e|-----------------------------------------------------------|
B|--10-8-8~---5-6---5----------------------------------------|
D|--------------------7-5---7^-7r-5----5-7^-7r-5-------------|
G|-----------------------------------7-----------5-5^^-5~----|
A|-----------------------------------------------------------|
E|-----------------------------------------------------------|


                G              F                              C    B  Am
e|--------12-13-12----------12-13---12h13-15--13h15-17--15h17-20---19-17----|
B|--13-15----------15-15----------------------------------------------------|
D|--------------------------------------------------------------------------|
G|--------------------------------------------------------------------------|
A|--------------------------------------------------------------------------|
E|--------------------------------------------------------------------------|


Am
Dikala hidup ini...






(Outro solo:)


Gadisku...


    C              Em        F              G#
e|-------------------------------------------------------|---|
B|-----------8-8h10-8~-----8-10--8-----------9-8----8----|---|
G|--9~--9-10------------10----------10--9-10-----10------|---|
D|-------------------------------------------------------|---|
A|-------------------------------------------------------|---|
E|-------------------------------------------------------|---|


    C              Em        F              G#
e|-------------------------------------------------------|---|
B|-----------8-8h10-8~-----8-10--8-----------9-----12----|---|
G|--9~--9-10------------10----------10--9-10-------------|---|
D|-------------------------------------------------------|---|
A|-------------------------------------------------------|---|
E|-------------------------------------------------------|---|


    C             G   G
e|--------------------------------|---|
B|-----------8h10-8~--12~---------|---|
D|--9~--9-10----------------------|---|
G|--------------------------------|---|
A|--------------------------------|---|
E|--------------------------------|---|



Guitar tabs by rizalwahap
Tap to rate this tab
# A B C D E F G H I J K L M N O P Q R S T U V W X Y Z