Song name
# A B C D E F G H I J K L M N O P Q R S T U V W X Y Z

Search - Pelesit Kota tab

Ni tab pertama ak. So kalo ad salah sori la. Yg pntg kome maen je :D
Last skali ak nk ucap time kasih kt ikhmal zariq sbb perkenalkn lgu nih :)

Guitar I
e|-8--7h8-5-------5----------------------------------------|
B|----------8-6-5----8-6-5----8--6-5-----------------------|
G|-------------------------5---------4--4-4h5p4h5p4h5p4--5-|
D|---------------------------------------------------------|
A|---------------------------------------------------------|
E|---------------------------------------------------------|
Guitar I
e|-8--7h8-5-------5-------------------------------------|
B|----------8-6-5----8-6-5----8--6-5--------------------|
G|-------------------------5---------4--4-4h5p4h5p4h5p4-|
D|------------------------------------------------------|
A|------------------------------------------------------|
E|------------------------------------------------------|
Guitar I
e|---------------5-----------------------------8-7-5h7p5h7p5h7p5-|
B|----5---5--6-8-----------5-6-8--5------6-5---------------------|
G|-5----7-----------7-5-7-----------7-5------7-------------------|
D|---------------------------------------------------------------|
A|---------------------------------------------------------------|
E|---------------------------------------------------------------|
Guitar I
e|---------------5----------------8-7-8--13-12-10h12p10h12p10h12p10--12|
B|----5---5--6-8-----------8-6-5---------------------------------------|
G|-5----7-----------7-5-7----------------------------------------------|
D|---------------------------------------------------------------------|
A|---------------------------------------------------------------------|
E|---------------------------------------------------------------------|
Guitar II
e|--------------------|
B|--------------------|
G|-4-4h5p4h5p4h5p4--5-|
D|--------------------|
A|--------------------|
E|--------------------|
Guitar I
e|-8--7h8-5-------5------------------------------------------|
B|----------8-6-5----8-6-5----8--6-5-------------------------|
G|-------------------------5---------4--4-4h5p4h5p4h5p44h5-5|
D|-----------------------------------------------------------|
A|-----------------------------------------------------------|
E|-----------------------------------------------------------|

End
Tap to rate this tab
 
# A B C D E F G H I J K L M N O P Q R S T U V W X Y Z