Song name
# A B C D E F G H I J K L M N O P Q R S T U V W X Y Z

Search - Isabella tab

SEARCH - Isabella (solo)



Note: Use the tremolo bar for the solo.



Key:

^  - bend
^^ - full bend
h  - hammer on
p  - pull off
r  - release bend
/  - slide down
\  - slide up
~  - vibrato
() - finger tap



Solo:


A
Daun-daun kekeringan...



     Dm           Gm               C        Dm                    Gm
e|-----------------------------------------------------------------------|
B|---------------------------------10-8~---------------------------------|
G|--/12~---10-9-10/12---10p9-7--------------/12---9-9h10---7-7h9---------|
D|------------------------------/7---------------------------------5~----|
A|-----------------------------------------------------------------------|
E|-----------------------------------------------------------------------|


   C            A                  A#
e|-------------------------------------------------------------------------|
B|---------------------------------13~---10h13--10h13--10h13-10h13-10h13---|
G|-------------------------------------------------------------------------|
D|--5^^---(18)--5^^r---(15/17)---------------------------------------------|
A|-------------------------------------------------------------------------|
E|-------------------------------------------------------------------------|


                                                       Gm
e|--------------------------------------------------13/15---17~----|
B|--10h13-10h13-10h13-10h13-10h13-13^^--13^^--13p10----------------|
G|-----------------------------------------------------------------|
D|-----------------------------------------------------------------|
A|-----------------------------------------------------------------|
E|-----------------------------------------------------------------|


    C       A#
e|---------------------------------------------------------------------|
B|---------------------------------------------------------------------|
G|--/3--5--3\2-3---2h3p2-2h3p2-2h3p2-(5)-------------------------------|
D|---------------------------------------2h3p2-2h3p2-2h3p2-(5)---------|
A|-------------------------------------------------------------1h3p1---|
E|---------------------------------------------------------------------|


                                           F       Gm            C
e|---------------------------------------------------------------------|
B|------------------------------------------------/13---11-10-10/11~---|
G|---------------------------------------------------------------------|
D|---------------------------------------------------------------------|
A|--1h3p1-1h3p1-(5)----------------------------------------------------|
E|------------------1h3p1-1h3p1-1h3p1-(5)-3p1~-------------------------|


                A
e|-----------------------------------------------------------------------|
B|--------------11\-/15-13~----------------------------------------------|
G|--------10h12----------------------------------------------------------|
D|--10h12-----------------------------------------------------------10---|
A|------------------------------------10-12p10----10-12p10----10-12------|
E|------------------------------10-12----------12----------12------------|


                                                                             
e|--------------------------------------------------------13~--------||
B|-------------------------------------------------------------------||
G|-----------------------------10-12p10----10-12p10----10------------||
D|--12p10----10-12p10----10-12----------12----------12---------------||
A|--------12----------12---------------------------------------------||
E|-------------------------------------------------------------------||


Gm
Dia Isabella...



Guitar Fill 1:


A#            Gm
Siang jadi hilang...


e|----------------------------------------8~-----||
B|--8~---6-5---5------------6~---8-6-5~----------||
G|-----------7---7-5~----------------------------||
D|-----------------------------------------------||
A|-----------------------------------------------||
E|-----------------------------------------------||



Guitar Fill 2:


            A
Melenyapkan sebuah kisah...


e|--------------||
B|--------------||
G|--------------||
D|--------------||
A|--------------||
E|--5-3-6-5~----||




Guitar Tabs by rizalwahap
Tap to rate this tab
# A B C D E F G H I J K L M N O P Q R S T U V W X Y Z