Guitaretab - guitar tabs
Song name
# A B C D E F G H I J K L M N O P Q R S T U V W X Y Z

Seasick Steve - Last Po Man tab

Last Po' Man  by Seasick Steve

     E7                              E7

     E  E  E  E  S  E.  T  S. S S    E  E  E  E  S  E.  T  S. S S
E||-----0--0--0-------------------|-----0--0--0-------------------|
B||-----3--3--3--0h-3-------------|-----3--3--3-------------------|
G||-----4--4--4---------2--0------|-----4--4--4--2S-4---2--0------|
D||---------------------------2---|---------------------------2---|
A||-------------------------------|-------------------------------|
E||--0-----0-----0------0---------|--0-----0-----0------0---------|

[ Tab from: http://www.guitaretab.com/s/seasick-steve/101417.html ]
Mute bass notes.
Riff varies but as far as i can tell it's always close to these two examples.
He plays drums and vocals alone and leads back in with a Em pentatonic riff along these 
 Then back into verse again.


                           W
  Q    Q    Q    Q         H        E  S S S S E
----------------------|----------------3-0--------|
----------------------|--3g5---------------3-0----|
----------------------|------------------------2--|
----------------------|---------------------------|
----------------------|---------------------------|
----------------------|---------------------------|


Simple song really.
Related for Last Po Man tab
Last Po Man chords by Seasick Steve