Song name
# A B C D E F G H I J K L M N O P Q R S T U V W X Y Z

Seasick Steve - Hobo Low tab

Hobo Low by Seasick Steve
from Dog House Music

INTRO
e-----0-------0-------|
B-1/3-----------------|
G-2/4---2brp0---2brp0-| palm mute the first open e
D---------------------| and hold the bend on the second 2b
A---------------------|
E---------------------|
   
MAIN RIFF   
e---0---0---------|
B---3---3---------|
G---1---1---------|
D---2---2-----0---|
A---2---2-0h2-----|
E-0---0---------3-|

AFTER CHORUS
e-33-33-00--|
B-00-00-00--|
G-11-11-11--|
D-22-22-22--|
A-22-22-22--|
E-----------|

2.03
e-------------------------------|
B-------------------------------|
G-------------------------------|
D-------------------------------|
A---5-777p5---5555--------------|
E-7---------7------7-555-0h33-0-|

Any corrections please comment
Thanks
Tap to rate this tab
# A B C D E F G H I J K L M N O P Q R S T U V W X Y Z