Song name
# A B C D E F G H I J K L M N O P Q R S T U V W X Y Z

Seasick Steve - Just Like A King tab

Help us improve GuitareTab! Take a short survey!
Just Like A King by Seasick Steve
from I Started Out With Nothing And I've Still Got Most Of It Left
Open D Tuning

INTRO
D--10/12-10/12-10h12--------10/12-10/12\10--5brp0-3p0-3--5/7-3p0--3bp0-3~p0|
A--------------------------------------------------------------------------|
Gb-------------------------------------------------------------------------|
D---------------------10/12------------------------------------------------|
A---------------------10/12------------------------------------------------|
D---------------------10/12------------------------------------------------|

MAIN RIFF 0.28
D-3-0---0------------|
A-----3--------------|
Gb-------------------|
D---------5-3-0h3-0--|
A--------------------|
D--------------------|

CHORUS 1.12
D----------------------------------------|
A----------------------------------------| last slide is quicker
Gb-3/5-3-0--3/5-3-0--3/5-----------------| and not held on 5th fret
D--3/5-3-0--3/5-3-0--3/5--3--------------| for as long.
A--3/5-3-0--3/5-3-0--3/5------5----------|
D---------------------------------5-3-0--|

2.11                                      x4 
D------------------|-12-12-10-12-12--------|
A------------------|-12-12-10-12-12--------|
Gb-3--6--8--10--12-|-----------------------|
D--3--6--8--10--12-|----------------0h3p0--|
A--3--6--8--10--12-|-----------------------|
D------------------|-----------------------|

2.31                                                               x2
D-----------------------------------------------------0h3-0h3-5-5~--|
A-------------------------------------------------------------------|
Gb------------------------------------------------------------------|
D--0h3-0h3-3-3-0-0--0h3-0h3-5-5-0-0--0h3-0h3-3-3-0-0----------------|
A-------------------------------------------------------------------|
D-------------------------------------------------------------------|

Any corrections please comment
Thanks
Related for Just Like A King tab