Guitaretab - guitar tabs
Song name
# A B C D E F G H I J K L M N O P Q R S T U V W X Y Z

Seasick Steve - Prospect Lane tab

Prospect lane by Seasick steve
from I Started Out With Nothing And I've Still Got Most OfIt Left
Open D Tuning

INTRO
D--0/3p0--0/7p0--0/3p0--|
A-----------------------|
Gb----------------------|
D-----------------------|
A-----------------------|
D-----------------------|
[ Tab from: http://www.guitaretab.com/s/seasick-steve/176111.html ]
VERSE
D--3/4--------------3/4---------------3/4------------------------------|
A----------------------------------------------------------------------|
Gb-----------------------------------------------------2/3-------------|
D------4p0-3p0---0------4p0-3p0-3bp0------4p0-3p0---0--2/3--0h3p0-3-0--|
A--------------3----------------------------------3--------------------|
D----------------------------------------------------------------------|

0.44
D--0-3-4/12-4-3-0-0--3/4--------------|
A-------------------------------------|
Gb------------------------------------|
D------------------------4p0-3p0---0--|
A--------------------------------3----|
D-------------------------------------|

1.06        x7
D------------|
A------------|
Gb-----------|
D--0-2/3-00--|
A--0-2/3-00--|
D--0-2/3-00--|

1.58         x4
D--3/4-0------|-0-2/3-0-2/7--3\0--|
A-------------|-------------------|
Gb-------3-0--|-------------------|
D--------3-0--|-------------------|
A-------------|-------------------|
D-------------|-------------------|

Any corrections please comment 
Thanks
Related for Prospect Lane tab
Advertisement will be closed in 10 seconds