Song name
# A B C D E F G H I J K L M N O P Q R S T U V W X Y Z

Seasick Steve - Fly By Night tab

Fly By Night by Seasick Steve
from the album I Started Out With Nothin And I've Still Got Most Of It Left
Open D Tuning

D--------3-3------------0-----0-----|
A--0-3h5-----5p3-5----3-----3-------| 
Gb----------------------------------|
D--------------------------------0--|
A-------------------3-----2------0--| < strum this gently
D--------------------------------0--|

0.40 CHORUS
D-----------/12--5-3----------------3-------------------------------0-----0|
A-------------------------------3-5---5-3-5-----------------------3-----3--|
Gb-------------------------------------------5-----------------------------|
D---------5-----------5-5-5--5---------------5---12-10-5-3-0---------------|
A--2-3-5--5-----------5-5-5--5---------------5---12-10-5-3-0--3-5-----2----|
D---------5-----------5-5-5----------------------12-10-5-3-0---------------|

1.52 ENDING OF 2nd CHORUS
D----------/12--|          
A--5-3----------|
Gb-----1--------|
D--------3-0----|
A---------------|
D---------------|

2.03                            2.10                        2.25
D--10/12-12-12-10-10/12-10/12--|--3/5-5-5-5-5-5br-3---3----|------|
A------------------------------|--------------------5---5--|--3b--|
Gb-----------------------------|---------------------------|------|
D------------------------------|---------------------------|------|
A------------------------------|---------------------------|------|
D------------------------------|---------------------------|------|

OUTRO 2.48
D----------------3\0--3\0--|
A--5-3-----3b--------------|
Gb-----1-------------------|
D--------3-----------------|
A--------------------------|
D--------------------------|

Any corrections please comment
Thanks
Tap to rate this tab
# A B C D E F G H I J K L M N O P Q R S T U V W X Y Z