Song name
# A B C D E F G H I J K L M N O P Q R S T U V W X Y Z

Seasick Steve - St Louis Slim tab

St Louis Slim by Seasick Steve
from the album I Started Out With Nothin And I've Still Got Most Of It Left
Open D Tuning

                 x3
D-----------------|-----------| 
A--3/5-3----------|-----------| play whole thing twice
Gb-------4p1------|-----------|
D-----------------|-4/5-55-3--|
A-----------------|-2/3-33-1--|
D------------8p5--|-----------|

0.23 VERSE                                   
D-------------------------------------------|
A-------------------------------------------|
Gb-4bp1--4p1-4p1---4bp1--4p1-4p1------------|
D---------------------------------4/5-55-3--|
A---------------------------------2/3-33-1--|
D-------------------------------------------|
                
VERSE cont.     x4
D----------------|-------------|
A----------------|-------------|
Gb-4bp1--4p1-4p1-|-------------|
D----------------|---4/5-55-3--|
A----------------|---2/3-33-1--|
D--------------- |-------------|

1.06 CHORUS
D----------------------------------------------|
A-3h5-55555555----------3h5-3------------------|
Gb----------------------------4p1--------------|
D-------------4/5-55-3---------------4/5-55-3--|
A-------------2/3-33-1---------------2/3-33-1--|
D----------------------------------------------|

2.39
D----------------------------|
A-----------3h5-5-5-5-5p3-0--| the open A is heavily muted
Gb---------------------------|
D--4/5-55-3------------------| repeat this until the end.
A--2-3-33-1------------------|
D----------------------------|

Any corrections please comment
Thanks
Tap to rate this tab
# A B C D E F G H I J K L M N O P Q R S T U V W X Y Z