Song name
# A B C D E F G H I J K L M N O P Q R S T U V W X Y Z

Seasick Steve - One True tab

One True by Seasick Steve
from the album I Started Out With Nothin And I Still Got Most Of It Left
Open D Tuning

MAIN RIFF        x4
D--3--------------|
A-----------------|
Gb---4-1--1---1---|
D-----------3-----|
A-----------------|
D-----------------|

CHORUS          x4
D----------------|
A----------------|
Gb-4--4--1---1---|
D----------3-----|
A----------------|
D----------------|
   x  x  x x x  palm muted

1.23                     x2                       x2               x4
D-------------------------|------------------------|-8--------------|
A--5-8-10-8---------------|------------------------|---8p5----------|
Gb----------4p1-4-1-------|-4/6-4/6-4--1---1-------|-------4p1-4-1--|
D--------------------3h5--|--------------3----3h5--|----------------|
A-------------------------|------------------------|----------------|
D-------------------------|------------------------|----------------|
                     x x                      x x

2.40                 x3
D--3------------------|-3----|
A---------------------|------|
Gb---4-1--1---1----1--|---4--|
D-----------3----3----|------|
A---------------------|------|
D---------------------|------|

Any corrections please comment
Thanks
Tap to rate this tab
# A B C D E F G H I J K L M N O P Q R S T U V W X Y Z